  0
SECTION
  2
HEADER
  9
$ACADVER
  1
AC1006
  9
$INSBASE
 10
0.0
 20
0.0
 30
0.0
  9
$EXTMAX
 10
78.6873
 20
-0.0368
  9
$EXTMIN
 10
-17.5437
 20
-34.0368
  9
$LIMMAX
 10
12.0
 20
9.0
  9
$LIMMIN
 10
0.0
 20
0.0
  9
$ORTHOMODE
 70
0
  9
$REGENMODE
 70
1
  9
$FILLMODE
 70
1
  9
$QTEXTMODE
 70
0
  9
$MIRRTEXT
 70
1
  9
$DRAGMODE
 70
2
  9
$LTSCALE
 40
1.0
  9
$OSMODE
 70
0
  9
$ATTMODE
 70
1
  9
$TEXTSIZE
 40
0.2
  9
$TRACEWID
 40
0.05
  9
$TEXTSTYLE
  7
STANDARD
  9
$CLAYER
  8
0
  9
$CELTYPE
  6
CONTINUOUS
  9
$CECOLOR
 62
256
  9
$DIMSCALE
 40
1.0
  9
$DIMASZ
 40
0.18
  9
$DIMEXO
 40
0.0625
  9
$DIMDLI
 40
0.38
  9
$DIMRND
 40
0.0
  9
$DIMDLE
 40
0.0
  9
$DIMEXE
 40
0.18
  9
$DIMTP
 40
0.0
  9
$DIMTM
 40
0.0
  9
$DIMTXT
 40
0.18
  9
$DIMCEN
 40
0.09
  9
$DIMTSZ
 40
0.0
  9
$DIMTOL
 70
0
  9
$DIMLIM
 70
0
  9
$DIMTIH
 70
1
  9
$DIMTOH
 70
1
  9
$DIMSE1
 70
0
  9
$DIMSE2
 70
0
  9
$DIMTAD
 70
0
  9
$DIMZIN
 70
0
  9
$DIMBLK
  1

  9
$DIMASO
 70
1
  9
$DIMSHO
 70
1
  9
$DIMPOST
  1

  9
$DIMAPOST
  1

  9
$DIMALT
 70
0
  9
$DIMALTD
 70
2
  9
$DIMALTF
 40
25.4
  9
$DIMLFAC
 40
1.0
  9
$DIMTOFL
 70
0
  9
$DIMTVP
 40
0.0
  9
$DIMTIX
 70
0
  9
$DIMSOXD
 70
0
  9
$DIMSAH
 70
0
  9
$DIMBLK1
  1

  9
$DIMBLK2
  1

  9
$LUNITS
 70
2
  9
$LUPREC
 70
4
  9
$AXISMODE
 70
0
  9
$AXISUNIT
 10
0.0
 20
0.0
  9
$SKETCHINC
 40
0.1
  9
$FILLETRAD
 40
0.0
  9
$AUNITS
 70
0
  9
$AUPREC
 70
0
  9
$MENU
  1
acad
  9
$ELEVATION
 40
0.0
  9
$THICKNESS
 40
0.0
  9
$LIMCHECK
 70
0
  9
$BLIPMODE
 70
1
  9
$CHAMFERA
 40
0.0
  9
$CHAMFERB
 40
0.0
  9
$SKPOLY
 70
0
  9
$TDCREATE
 40
0.0
  9
$TDUPDATE
 40
0.0
  9
$TDINDWG
 40
0.0
  9
$TDUSRTIMER
 40
0.0
  9
$USRTIMER
 70
1
  9
$ANGBASE
 50
0.0
  9
$ANGDIR
 70
0
  9
$PDMODE
 70
0
  9
$PDSIZE
 40
0.0
  9
$PLINEWID
 40
0.0
  9
$COORDS
 70
0
  9
$SPLFRAME
 70
0
  9
$SPLINETYPE
 70
6
  9
$SPLINESEGS
 70
10
  9
$ATTDIA
 70
0
  9
$ATTREQ
 70
1
  9
$HANDLING
 70
1
  9
$HANDSEED
  5
F38
  9
$SURFTAB1
 70
6
  9
$SURFTAB2
 70
6
  9
$SURFTYPE
 70
6
  9
$SURFU
 70
10
  9
$SURFV
 70
10
  9
$FLATLAND
 70
0
  9
$UCSNAME
  2

  9
$UCSORG
 10
0.0
 20
0.0
 30
0.0
  9
$UCSXDIR
 10
1.0
 20
0.0
 30
0.0
  9
$UCSYDIR
 10
0.0
 20
1.0
 30
0.0
  9
$USERI1
 70
0
  9
$USERI2
 70
0
  9
$USERI3
 70
0
  9
$USERI4
 70
0
  9
$USERI5
 70
0
  9
$USERR1
 40
0.0
  9
$USERR2
 40
0.0
  9
$USERR3
 40
0.0
  9
$USERR4
 40
0.0
  9
$USERR5
 40
0.0
  9
$WORLDVIEW
 70
1
  0
ENDSEC
  0
SECTION
  2
TABLES
  0
TABLE
  2
LTYPE
 70
7
  0
LTYPE
  2
CONTINUOUS
 70
64
  3
Solid line
 72
65
 73
0
 40
0.0
  0
LTYPE
  2
DOT
 70
64
  3
. . . . . . . . . . . . . . . . . . . . . . . . . . . . . . . . .
 72
65
 73
2
 40
0.25
 49
0.0
 49
-0.25
  0
LTYPE
  2
HIDDEN
 70
64
  3
__ __ __ __ __ __ __ __ __ __ __ __ __ __ __ __ __ __ __ __ __ 
 72
65
 73
2
 40
0.375
 49
0.25
 49
-0.125
  0
LTYPE
  2
DASHED
 70
64
  3
__ __ __ __ __ __ __ __ __ __ __ __ __ __ __ __ __ __ __ __ __
 72
65
 73
2
 40
0.75
 49
0.5
 49
-0.25
  0
LTYPE
  2
DASHDOT
 70
64
  3
__ . __ . __ . __ . __ . __ . __ . __ . __ . __ . __ . __ . _
 72
65
 73
4
 40
1.0
 49
0.5
 49
-0.25
 49
0.0
 49
-0.25
  0
LTYPE
  2
DIVIDE
 70
64
  3
____ . . ____ . . ____ . . ____ . . ____ . . ____ . . ____ . .
 72
65
 73
6
 40
1.25
 49
0.5
 49
-0.25
 49
0.0
 49
-0.25
 49
0.0
 49
-0.25
  0
LTYPE
  2
CENTER
 70
64
  3
____ _ ____ _ ____ _ ____ _ ____ _ ____ _ ____ _ ____ _ ____ _
 72
65
 73
4
 40
2.0
 49
1.25
 49
-0.25
 49
0.25
 49
-0.25
  0
ENDTAB
  0
TABLE
  2
LAYER
 70
14
  0
LAYER
  2
0
 70
0
 62
7
  6
CONTINUOUS
  0
LAYER
  2
CONSTRUCTION_CLASS
 70
0
 62
7
  6
CONTINUOUS
  0
LAYER
  2
PATTERN_CLASS
 70
0
 62
7
  6
CONTINUOUS
  0
LAYER
  2
2
 70
0
 62
7
  6
CONTINUOUS
  0
LAYER
  2
1
 70
0
 62
7
  6
CONTINUOUS
  0
LAYER
  2
13
 70
0
 62
7
  6
CONTINUOUS
  0
LAYER
  2
6
 70
0
 62
7
  6
CONTINUOUS
  0
LAYER
  2
0
 70
0
 62
7
  6
CONTINUOUS
  0
LAYER
  2
5
 70
0
 62
7
  6
CONTINUOUS
  0
LAYER
  2
7
 70
0
 62
7
  6
CONTINUOUS
  0
LAYER
  2
8
 70
0
 62
7
  6
CONTINUOUS
  0
LAYER
  2
10
 70
0
 62
7
  6
CONTINUOUS
  0
LAYER
  2
12
 70
0
 62
7
  6
CONTINUOUS
  0
LAYER
  2
34
 70
0
 62
7
  6
CONTINUOUS
  0
ENDTAB
  0
TABLE
  2
STYLE
 70
2
  0
STYLE
  2
STANDARD
 70
0
 40
0.2
 41
1.0
 50
0.0
 71
0
 42
0.2
  3
txt
  4

  0
STYLE
  2
ROMANC
 70
0
 40
0.2
 41
1.0
 50
0.0
 71
0
 42
0.2
  3
ROMANC
  4

  0
ENDTAB
  0
TABLE
  2
UCS
 70
0
  0
ENDTAB
  0
TABLE
  2
VIEW
 70
0
  0
ENDTAB
  0
TABLE
  2
VPORT
 70
1
  0
VPORT
  2
*ACTIVE
 70
0
 10
0.0
 20
0.0
 11
1.0
 21
1.0
 12
0.0
 22
0.0
 13
0.0
 23
0.0
 14
0.0
 24
0.0
 15
0.0
 25
0.0
 16
0.0
 26
0.0
 36
1.0
 17
27.664879
 27
-16.22895
 37
0.0
 40
62.1453
 41
1.493644
 42
50.0
 43
0.0004
 44
0.0
 50
0.0
 51
0.0
 71
0
 72
100
 73
1
 74
0
 75
0
 76
0
 77
0
 78
0
  0
ENDTAB
  0
ENDSEC
  0
SECTION
  2
BLOCKS
  0
BLOCK
  8
2
  5
E2D
 70
0
 10
0.0
 20
0.0
 30
0.0
  2
PROP
  3
PROP
  0
LINE
  8
2
  5
E2F
  6
CONTINUOUS
 62
3
 10
1.9229
 20
5.5055
 30
0.0
 11
2.0675
 21
5.5055
 31
0.0
  0
ARC
  8
2
  5
E31
  6
CONTINUOUS
 62
3
 10
-1.363448
 20
4.07962
 30
0.0
 40
3.715542
 50
0.0364361111
 51
22.5658777778
  0
ARC
  8
2
  5
E33
  6
CONTINUOUS
 62
3
 10
5.354054
 20
4.07962
 30
0.0
 40
3.715542
 50
157.4341222222
 51
179.9635638889
  0
ARC
  8
2
  5
E35
  6
CONTINUOUS
 62
3
 10
-35.707749
 20
4.257162
 30
0.0
 40
38.060245
 50
355.3201194444
 51
359.7362861111
  0
ARC
  8
2
  5
E37
  6
CONTINUOUS
 62
3
 10
39.754413
 20
4.787919
 30
0.0
 40
38.122436
 50
181.0610416667
 51
185.6579194444
  0
LINE
  8
2
  5
E39
  6
CONTINUOUS
 62
3
 10
1.9229
 20
-5.5053
 30
0.0
 11
2.0675
 21
-5.5053
 31
0.0
  0
ARC
  8
2
  5
E3B
  6
CONTINUOUS
 62
3
 10
-1.363448
 20
-4.079523
 30
0.0
 40
3.715542
 50
337.4341222222
 51
359.9635638889
  0
ARC
  8
2
  5
E3D
  6
CONTINUOUS
 62
3
 10
5.354054
 20
-4.079523
 30
0.0
 40
3.715542
 50
180.0364361111
 51
202.5658777778
  0
ARC
  8
2
  5
E3F
  6
CONTINUOUS
 62
3
 10
-35.707749
 20
-4.257065
 30
0.0
 40
38.060245
 50
0.2637138889
 51
4.6798805556
  0
ARC
  8
2
  5
E41
  6
CONTINUOUS
 62
3
 10
39.754413
 20
-4.787822
 30
0.0
 40
38.122436
 50
174.3420805556
 51
178.9389583333
  0
ENDBLK
  8
2
  5
E42
  0
BLOCK
  8
2
  5
E44
 70
0
 10
0.0
 20
0.0
 30
0.0
  2
ARROWD
  3
ARROWD
  0
SOLID
  8
2
  5
E46
  6
CONTINUOUS
 62
7
 10
0.0157
 20
0.0936
 30
0.0
 11
-0.0218
 21
0.0936
 31
0.0
 12
-0.0031
 22
-0.0189
 32
0.0
 13
-0.0031
 23
-0.0189
 33
0.0
  0
LINE
  8
2
  5
E48
  6
CONTINUOUS
 62
7
 10
-0.0031
 20
0.0936
 30
0.0
 11
-0.0031
 21
0.3561
 31
0.0
  0
ENDBLK
  8
2
  5
E49
  0
BLOCK
  8
1
  5
E4B
 70
0
 10
0.0
 20
0.0
 30
0.0
  2
GA
  3
GA
  0
LINE
  8
1
  5
E4D
  6
CONTINUOUS
 62
7
 10
-4.462
 20
0.5898
 30
0.0
 11
-4.462
 21
-0.754
 31
0.0
  0
ARC
  8
1
  5
E4F
  6
CONTINUOUS
 62
7
 10
-4.161912
 20
0.589803
 30
0.0
 40
0.299999
 50
90.0
 51
180.0
  0
ARC
  8
1
  5
E51
  6
CONTINUOUS
 62
7
 10
-4.161912
 20
-0.754094
 30
0.0
 40
0.299999
 50
180.0
 51
270.0
  0
LINE
  8
1
  5
E53
  6
CONTINUOUS
 62
7
 10
-4.162
 20
0.8898
 30
0.0
 11
-3.4494
 21
0.8898
 31
0.0
  0
LINE
  8
1
  5
E55
  6
CONTINUOUS
 62
7
 10
-4.162
 20
-1.0541
 30
0.0
 11
-3.4494
 21
-1.0541
 31
0.0
  0
ARC
  8
1
  5
E57
  6
CONTINUOUS
 62
7
 10
-3.449413
 20
0.589803
 30
0.0
 40
0.299999
 50
0.0
 51
90.0
  0
ARC
  8
1
  5
E59
  6
CONTINUOUS
 62
7
 10
-3.449413
 20
-0.754094
 30
0.0
 40
0.299999
 50
270.0
 51
360.0
  0
LINE
  8
1
  5
E5B
  6
CONTINUOUS
 62
7
 10
-4.162
 20
-1.0541
 30
0.0
 11
-3.4494
 21
-1.0541
 31
0.0
  0
ARC
  8
1
  5
E5D
  6
CONTINUOUS
 62
7
 10
3.425974
 20
0.589803
 30
0.0
 40
0.299999
 50
90.0
 51
180.0
  0
ARC
  8
1
  5
E5F
  6
CONTINUOUS
 62
7
 10
3.425974
 20
-0.754094
 30
0.0
 40
0.299999
 50
180.0
 51
270.0
  0
LINE
  8
1
  5
E61
  6
CONTINUOUS
 62
7
 10
3.426
 20
0.8898
 30
0.0
 11
4.1385
 21
0.8898
 31
0.0
  0
LINE
  8
1
  5
E63
  6
CONTINUOUS
 62
7
 10
3.426
 20
-1.0541
 30
0.0
 11
4.1385
 21
-1.0541
 31
0.0
  0
ARC
  8
1
  5
E65
  6
CONTINUOUS
 62
7
 10
4.138472
 20
0.589803
 30
0.0
 40
0.299999
 50
0.0
 51
90.0
  0
ARC
  8
1
  5
E67
  6
CONTINUOUS
 62
7
 10
4.138472
 20
-0.754094
 30
0.0
 40
0.299999
 50
270.0
 51
360.0
  0
LINE
  8
1
  5
E69
  6
CONTINUOUS
 62
7
 10
3.426
 20
-1.0541
 30
0.0
 11
4.1385
 21
-1.0541
 31
0.0
  0
LINE
  8
1
  5
E6B
  6
CONTINUOUS
 62
7
 10
-3.1495
 20
-0.1165
 30
0.0
 11
-3.7799
 21
-0.1165
 31
0.0
  0
LINE
  8
1
  5
E6D
  6
CONTINUOUS
 62
7
 10
-3.7799
 20
-0.1165
 30
0.0
 11
-3.7799
 21
-0.4291
 31
0.0
  0
LINE
  8
1
  5
E6F
  6
CONTINUOUS
 62
7
 10
-3.4619
 20
0.1953
 30
0.0
 11
-3.1495
 21
0.3471
 31
0.0
  0
LINE
  8
1
  5
E71
  6
CONTINUOUS
 62
7
 10
-3.1495
 20
0.5898
 30
0.0
 11
-3.1495
 21
0.3471
 31
0.0
  0
LINE
  8
1
  5
E73
  6
CONTINUOUS
 62
7
 10
-3.1495
 20
-0.1165
 30
0.0
 11
-3.1495
 21
-0.754
 31
0.0
  0
LINE
  8
1
  5
E75
  6
CONTINUOUS
 62
7
 10
-3.4619
 20
-0.4291
 30
0.0
 11
-3.4619
 21
-0.6416
 31
0.0
  0
LINE
  8
1
  5
E77
  6
CONTINUOUS
 62
7
 10
-3.4619
 20
-0.4291
 30
0.0
 11
-3.7799
 21
-0.4291
 31
0.0
  0
LINE
  8
1
  5
E79
  6
CONTINUOUS
 62
7
 10
-4.0494
 20
-0.7416
 30
0.0
 11
-3.5619
 21
-0.7416
 31
0.0
  0
LINE
  8
1
  5
E7B
  6
CONTINUOUS
 62
7
 10
-4.1494
 20
0.4773
 30
0.0
 11
-4.1494
 21
-0.6416
 31
0.0
  0
LINE
  8
1
  5
E7D
  6
CONTINUOUS
 62
7
 10
-4.0494
 20
0.5773
 30
0.0
 11
-3.5619
 21
0.5773
 31
0.0
  0
LINE
  8
1
  5
E7F
  6
CONTINUOUS
 62
7
 10
-3.4619
 20
0.4773
 30
0.0
 11
-3.4619
 21
0.1953
 31
0.0
  0
LINE
  8
1
  5
E81
  6
CONTINUOUS
 62
7
 10
3.5384
 20
-0.7416
 30
0.0
 11
4.026
 21
-0.7416
 31
0.0
  0
LINE
  8
1
  5
E83
  6
CONTINUOUS
 62
7
 10
3.5384
 20
0.5773
 30
0.0
 11
4.026
 21
0.5773
 31
0.0
  0
ARC
  8
1
  5
E85
  6
CONTINUOUS
 62
7
 10
3.538473
 20
-0.641594
 30
0.0
 40
0.1
 50
180.0
 51
270.0
  0
ARC
  8
1
  5
E87
  6
CONTINUOUS
 62
7
 10
3.538473
 20
0.477303
 30
0.0
 40
0.1
 50
90.0
 51
180.0
  0
ARC
  8
1
  5
E89
  6
CONTINUOUS
 62
7
 10
4.025972
 20
0.477303
 30
0.0
 40
0.1
 50
0.0
 51
90.0
  0
ARC
  8
1
  5
E8B
  6
CONTINUOUS
 62
7
 10
4.025972
 20
-0.641594
 30
0.0
 40
0.1
 50
270.0
 51
0.0
  0
ARC
  8
1
  5
E8D
  6
CONTINUOUS
 62
7
 10
-3.561913
 20
0.477303
 30
0.0
 40
0.1
 50
0.0
 51
90.0
  0
ARC
  8
1
  5
E8F
  6
CONTINUOUS
 62
7
 10
-4.049412
 20
0.477303
 30
0.0
 40
0.1
 50
90.0
 51
180.0
  0
ARC
  8
1
  5
E91
  6
CONTINUOUS
 62
7
 10
-3.561913
 20
-0.641594
 30
0.0
 40
0.1
 50
270.0
 51
0.0
  0
ARC
  8
1
  5
E93
  6
CONTINUOUS
 62
7
 10
-4.049412
 20
-0.641594
 30
0.0
 40
0.1
 50
180.0
 51
270.0
  0
LINE
  8
1
  5
E95
  6
CONTINUOUS
 62
7
 10
-0.0517
 20
0.5898
 30
0.0
 11
-0.0517
 21
-0.754
 31
0.0
  0
ARC
  8
1
  5
E97
  6
CONTINUOUS
 62
7
 10
0.24828
 20
0.589803
 30
0.0
 40
0.299999
 50
90.0
 51
180.0
  0
ARC
  8
1
  5
E99
  6
CONTINUOUS
 62
7
 10
0.24828
 20
-0.754094
 30
0.0
 40
0.299999
 50
180.0
 51
270.0
  0
LINE
  8
1
  5
E9B
  6
CONTINUOUS
 62
7
 10
0.2483
 20
0.8898
 30
0.0
 11
0.9608
 21
0.8898
 31
0.0
  0
LINE
  8
1
  5
E9D
  6
CONTINUOUS
 62
7
 10
0.2483
 20
-1.0541
 30
0.0
 11
0.9608
 21
-1.0541
 31
0.0
  0
ARC
  8
1
  5
E9F
  6
CONTINUOUS
 62
7
 10
0.960778
 20
0.589803
 30
0.0
 40
0.299999
 50
0.0
 51
90.0
  0
ARC
  8
1
  5
EA1
  6
CONTINUOUS
 62
7
 10
0.960778
 20
-0.754094
 30
0.0
 40
0.299999
 50
270.0
 51
360.0
  0
LINE
  8
1
  5
EA3
  6
CONTINUOUS
 62
7
 10
0.2483
 20
-1.0541
 30
0.0
 11
0.9608
 21
-1.0541
 31
0.0
  0
LINE
  8
1
  5
EA5
  6
CONTINUOUS
 62
7
 10
0.9483
 20
0.1953
 30
0.0
 11
1.2608
 21
0.3471
 31
0.0
  0
LINE
  8
1
  5
EA7
  6
CONTINUOUS
 62
7
 10
1.2608
 20
0.5898
 30
0.0
 11
1.2608
 21
0.3471
 31
0.0
  0
LINE
  8
1
  5
EA9
  6
CONTINUOUS
 62
7
 10
0.3608
 20
-0.7416
 30
0.0
 11
0.8483
 21
-0.7416
 31
0.0
  0
LINE
  8
1
  5
EAB
  6
CONTINUOUS
 62
7
 10
0.2607
 20
0.4773
 30
0.0
 11
0.2607
 21
-0.6416
 31
0.0
  0
LINE
  8
1
  5
EAD
  6
CONTINUOUS
 62
7
 10
0.3608
 20
0.5773
 30
0.0
 11
0.8483
 21
0.5773
 31
0.0
  0
LINE
  8
1
  5
EAF
  6
CONTINUOUS
 62
7
 10
0.9483
 20
0.4773
 30
0.0
 11
0.9483
 21
0.1953
 31
0.0
  0
ARC
  8
1
  5
EB1
  6
CONTINUOUS
 62
7
 10
0.848278
 20
0.477303
 30
0.0
 40
0.1
 50
0.0
 51
90.0
  0
ARC
  8
1
  5
EB3
  6
CONTINUOUS
 62
7
 10
0.360779
 20
0.477303
 30
0.0
 40
0.1
 50
90.0
 51
180.0
  0
ARC
  8
1
  5
EB5
  6
CONTINUOUS
 62
7
 10
0.848278
 20
-0.641594
 30
0.0
 40
0.1
 50
270.0
 51
0.0
  0
ARC
  8
1
  5
EB7
  6
CONTINUOUS
 62
7
 10
0.360779
 20
-0.641594
 30
0.0
 40
0.1
 50
180.0
 51
270.0
  0
LINE
  8
1
  5
EB9
  6
CONTINUOUS
 62
7
 10
0.9483
 20
-0.3595
 30
0.0
 11
1.2608
 21
-0.5113
 31
0.0
  0
LINE
  8
1
  5
EBB
  6
CONTINUOUS
 62
7
 10
0.9483
 20
-0.6415
 30
0.0
 11
0.9483
 21
-0.3595
 31
0.0
  0
LINE
  8
1
  5
EBD
  6
CONTINUOUS
 62
7
 10
1.2608
 20
-0.754
 30
0.0
 11
1.2608
 21
-0.5113
 31
0.0
  0
LINE
  8
1
  5
EBF
  6
CONTINUOUS
 62
7
 10
-2.7744
 20
0.0709
 30
0.0
 11
-1.8665
 21
0.0709
 31
0.0
  0
LINE
  8
1
  5
EC1
  6
CONTINUOUS
 62
7
 10
-2.7744
 20
-0.2416
 30
0.0
 11
-1.8665
 21
-0.2416
 31
0.0
  0
LINE
  8
1
  5
EC3
  6
CONTINUOUS
 62
7
 10
-2.7744
 20
0.0709
 30
0.0
 11
-2.7744
 21
-0.2416
 31
0.0
  0
LINE
  8
1
  5
EC5
  6
CONTINUOUS
 62
7
 10
-1.8665
 20
0.0709
 30
0.0
 11
-1.8665
 21
-0.2416
 31
0.0
  0
LINE
  8
1
  5
EC7
  6
CONTINUOUS
 62
7
 10
-0.7821
 20
0.8898
 30
0.0
 11
-1.0946
 21
0.8898
 31
0.0
  0
LINE
  8
1
  5
EC9
  6
CONTINUOUS
 62
7
 10
-1.5946
 20
-1.0541
 30
0.0
 11
-1.0946
 21
0.8898
 31
0.0
  0
LINE
  8
1
  5
ECB
  6
CONTINUOUS
 62
7
 10
-0.7821
 20
0.8898
 30
0.0
 11
-0.2821
 21
-1.0541
 31
0.0
  0
LINE
  8
1
  5
ECD
  6
CONTINUOUS
 62
7
 10
-1.1931
 20
-0.7473
 30
0.0
 11
-0.6837
 21
-0.7473
 31
0.0
  0
LINE
  8
1
  5
ECF
  6
CONTINUOUS
 62
7
 10
-1.1127
 20
-0.4349
 30
0.0
 11
-0.7641
 21
-0.4349
 31
0.0
  0
LINE
  8
1
  5
ED1
  6
CONTINUOUS
 62
7
 10
-0.9384
 20
0.2428
 30
0.0
 11
-0.7641
 21
-0.4349
 31
0.0
  0
LINE
  8
1
  5
ED3
  6
CONTINUOUS
 62
7
 10
-0.6837
 20
-0.7473
 30
0.0
 11
-0.6048
 21
-1.0541
 31
0.0
  0
LINE
  8
1
  5
ED5
  6
CONTINUOUS
 62
7
 10
-1.272
 20
-1.0541
 30
0.0
 11
-1.1931
 21
-0.7473
 31
0.0
  0
LINE
  8
1
  5
ED7
  6
CONTINUOUS
 62
7
 10
-1.1127
 20
-0.4349
 30
0.0
 11
-0.9384
 21
0.2428
 31
0.0
  0
LINE
  8
1
  5
ED9
  6
CONTINUOUS
 62
7
 10
-0.2821
 20
-1.0541
 30
0.0
 11
-0.6048
 21
-1.0541
 31
0.0
  0
LINE
  8
1
  5
EDB
  6
CONTINUOUS
 62
7
 10
-1.272
 20
-1.0541
 30
0.0
 11
-1.5946
 21
-1.0541
 31
0.0
  0
LINE
  8
1
  5
EDD
  6
CONTINUOUS
 62
7
 10
4.216
 20
-0.0456
 30
0.0
 11
3.5125
 21
0.143
 31
0.0
  0
LINE
  8
1
  5
EDF
  6
CONTINUOUS
 62
7
 10
4.0519
 20
-0.325
 30
0.0
 11
3.3485
 21
-0.1366
 31
0.0
  0
LINE
  8
1
  5
EE1
  6
CONTINUOUS
 62
7
 10
3.126
 20
0.5898
 30
0.0
 11
3.126
 21
0.1533
 31
0.0
  0
LINE
  8
1
  5
EE3
  6
CONTINUOUS
 62
7
 10
3.126
 20
-0.5113
 30
0.0
 11
3.126
 21
-0.754
 31
0.0
  0
LINE
  8
1
  5
EE5
  6
CONTINUOUS
 62
7
 10
3.4384
 20
0.4773
 30
0.0
 11
3.4384
 21
0.2396
 31
0.0
  0
LINE
  8
1
  5
EE7
  6
CONTINUOUS
 62
7
 10
3.4384
 20
-0.3595
 30
0.0
 11
3.4384
 21
-0.6416
 31
0.0
  0
LINE
  8
1
  5
EE9
  6
CONTINUOUS
 62
7
 10
4.126
 20
0.4773
 30
0.0
 11
4.126
 21
0.1953
 31
0.0
  0
LINE
  8
1
  5
EEB
  6
CONTINUOUS
 62
7
 10
4.126
 20
-0.4215
 30
0.0
 11
4.126
 21
-0.6416
 31
0.0
  0
LINE
  8
1
  5
EED
  6
CONTINUOUS
 62
7
 10
4.4385
 20
0.5898
 30
0.0
 11
4.4385
 21
0.3471
 31
0.0
  0
LINE
  8
1
  5
EEF
  6
CONTINUOUS
 62
7
 10
4.4385
 20
-0.3353
 30
0.0
 11
4.4385
 21
-0.754
 31
0.0
  0
LINE
  8
1
  5
EF1
  6
CONTINUOUS
 62
7
 10
3.4384
 20
-0.3595
 30
0.0
 11
3.126
 21
-0.5113
 31
0.0
  0
LINE
  8
1
  5
EF3
  6
CONTINUOUS
 62
7
 10
4.126
 20
0.1953
 30
0.0
 11
4.4385
 21
0.3471
 31
0.0
  0
ARC
  8
1
  5
EF5
  6
CONTINUOUS
 62
7
 10
4.025972
 20
-0.421604
 30
0.0
 40
0.1
 50
0.0
 51
74.9830611111
  0
ARC
  8
1
  5
EF7
  6
CONTINUOUS
 62
7
 10
3.538473
 20
0.239641
 30
0.0
 40
0.1
 50
180.0
 51
255.0034027778
  0
ARC
  8
1
  5
EF9
  6
CONTINUOUS
 62
7
 10
3.425974
 20
0.153319
 30
0.0
 40
0.299999
 50
180.0
 51
255.0041527778
  0
ARC
  8
1
  5
EFB
  6
CONTINUOUS
 62
7
 10
4.138472
 20
-0.335343
 30
0.0
 40
0.299999
 50
0.0
 51
75.0120194444
  0
ARC
  8
1
  5
EFD
  6
CONTINUOUS
 62
7
 10
1.833077
 20
0.589803
 30
0.0
 40
0.299999
 50
90.0
 51
180.0
  0
ARC
  8
1
  5
EFF
  6
CONTINUOUS
 62
7
 10
1.833077
 20
-0.754094
 30
0.0
 40
0.299999
 50
180.0
 51
270.0
  0
LINE
  8
1
  5
F01
  6
CONTINUOUS
 62
7
 10
1.833
 20
0.8898
 30
0.0
 11
2.5456
 21
0.8898
 31
0.0
  0
LINE
  8
1
  5
F03
  6
CONTINUOUS
 62
7
 10
1.833
 20
-1.0541
 30
0.0
 11
2.5456
 21
-1.0541
 31
0.0
  0
ARC
  8
1
  5
F05
  6
CONTINUOUS
 62
7
 10
2.545575
 20
0.589803
 30
0.0
 40
0.299999
 50
0.0
 51
90.0
  0
ARC
  8
1
  5
F07
  6
CONTINUOUS
 62
7
 10
2.545575
 20
-0.754094
 30
0.0
 40
0.299999
 50
270.0
 51
360.0
  0
LINE
  8
1
  5
F09
  6
CONTINUOUS
 62
7
 10
1.833
 20
-1.0541
 30
0.0
 11
2.5456
 21
-1.0541
 31
0.0
  0
LINE
  8
1
  5
F0B
  6
CONTINUOUS
 62
7
 10
1.9456
 20
-0.7416
 30
0.0
 11
2.433
 21
-0.7416
 31
0.0
  0
LINE
  8
1
  5
F0D
  6
CONTINUOUS
 62
7
 10
1.9456
 20
0.5773
 30
0.0
 11
2.433
 21
0.5773
 31
0.0
  0
ARC
  8
1
  5
F0F
  6
CONTINUOUS
 62
7
 10
1.945576
 20
-0.641594
 30
0.0
 40
0.1
 50
180.0
 51
270.0
  0
ARC
  8
1
  5
F11
  6
CONTINUOUS
 62
7
 10
1.945576
 20
0.477303
 30
0.0
 40
0.1
 50
90.0
 51
180.0
  0
ARC
  8
1
  5
F13
  6
CONTINUOUS
 62
7
 10
2.433075
 20
0.477303
 30
0.0
 40
0.1
 50
0.0
 51
90.0
  0
ARC
  8
1
  5
F15
  6
CONTINUOUS
 62
7
 10
2.433075
 20
-0.641594
 30
0.0
 40
0.1
 50
270.0
 51
0.0
  0
LINE
  8
1
  5
F17
  6
CONTINUOUS
 62
7
 10
2.6231
 20
-0.0456
 30
0.0
 11
1.9196
 21
0.143
 31
0.0
  0
LINE
  8
1
  5
F19
  6
CONTINUOUS
 62
7
 10
2.4589
 20
-0.325
 30
0.0
 11
1.7554
 21
-0.1366
 31
0.0
  0
LINE
  8
1
  5
F1B
  6
CONTINUOUS
 62
7
 10
1.533
 20
0.5898
 30
0.0
 11
1.533
 21
0.1533
 31
0.0
  0
LINE
  8
1
  5
F1D
  6
CONTINUOUS
 62
7
 10
1.533
 20
-0.5113
 30
0.0
 11
1.533
 21
-0.754
 31
0.0
  0
LINE
  8
1
  5
F1F
  6
CONTINUOUS
 62
7
 10
1.8456
 20
0.4773
 30
0.0
 11
1.8456
 21
0.2396
 31
0.0
  0
LINE
  8
1
  5
F21
  6
CONTINUOUS
 62
7
 10
1.8456
 20
-0.3595
 30
0.0
 11
1.8456
 21
-0.6416
 31
0.0
  0
LINE
  8
1
  5
F23
  6
CONTINUOUS
 62
7
 10
2.5331
 20
0.4773
 30
0.0
 11
2.5331
 21
0.1953
 31
0.0
  0
LINE
  8
1
  5
F25
  6
CONTINUOUS
 62
7
 10
2.5331
 20
-0.4215
 30
0.0
 11
2.5331
 21
-0.6416
 31
0.0
  0
LINE
  8
1
  5
F27
  6
CONTINUOUS
 62
7
 10
2.8455
 20
0.5898
 30
0.0
 11
2.8455
 21
0.3471
 31
0.0
  0
LINE
  8
1
  5
F29
  6
CONTINUOUS
 62
7
 10
2.8455
 20
-0.3353
 30
0.0
 11
2.8455
 21
-0.754
 31
0.0
  0
LINE
  8
1
  5
F2B
  6
CONTINUOUS
 62
7
 10
1.8456
 20
-0.3595
 30
0.0
 11
1.533
 21
-0.5113
 31
0.0
  0
LINE
  8
1
  5
F2D
  6
CONTINUOUS
 62
7
 10
2.5331
 20
0.1953
 30
0.0
 11
2.8455
 21
0.3471
 31
0.0
  0
ARC
  8
1
  5
F2F
  6
CONTINUOUS
 62
7
 10
2.433075
 20
-0.421604
 30
0.0
 40
0.1
 50
0.0
 51
74.9830611111
  0
ARC
  8
1
  5
F31
  6
CONTINUOUS
 62
7
 10
1.945576
 20
0.239641
 30
0.0
 40
0.1
 50
180.0
 51
255.0034027778
  0
ARC
  8
1
  5
F33
  6
CONTINUOUS
 62
7
 10
1.833077
 20
0.153319
 30
0.0
 40
0.299999
 50
180.0
 51
255.0041527778
  0
ARC
  8
1
  5
F35
  6
CONTINUOUS
 62
7
 10
2.545575
 20
-0.335343
 30
0.0
 40
0.299999
 50
0.0
 51
75.0120194444
  0
ENDBLK
  8
1
  5
F36
  0
ENDSEC
  0
SECTION
  2
ENTITIES
  0
LINE
  8
2
  5
2
  6
CONTINUOUS
 62
3
 10
27.2706
 20
-4.1726
 30
0.0
 11
27.2868
 21
-4.0476
 31
0.0
  0
LINE
  8
1
  5
4
  6
CONTINUOUS
 62
3
 10
42.2275
 20
-4.0476
 30
0.0
 11
41.8382
 21
-1.0313
 31
0.0
  0
LINE
  8
2
  5
6
  6
CONTINUOUS
 62
3
 10
39.9746
 20
-4.1726
 30
0.0
 11
39.9587
 21
-4.0476
 31
0.0
  0
LINE
  8
2
  5
8
  6
CONTINUOUS
 62
3
 10
27.4299
 20
-2.9382
 30
0.0
 11
27.4461
 21
-2.8132
 31
0.0
  0
LINE
  8
2
  5
A
  6
CONTINUOUS
 62
3
 10
27.5388
 20
-4.0476
 30
0.0
 11
27.682
 21
-2.9382
 31
0.0
  0
LINE
  8
2
  5
C
  6
CONTINUOUS
 62
3
 10
27.6982
 20
-2.8132
 30
0.0
 11
27.9281
 21
-1.0313
 31
0.0
  0
LINE
  8
2
  5
E
  6
CONTINUOUS
 62
3
 10
39.8154
 20
-2.9382
 30
0.0
 11
39.7992
 21
-2.8132
 31
0.0
  0
LINE
  8
2
  5
10
  6
CONTINUOUS
 62
3
 10
39.8325
 20
-4.0476
 30
0.0
 11
39.6894
 21
-2.9382
 31
0.0
  0
LINE
  8
2
  5
12
  6
CONTINUOUS
 62
3
 10
39.6733
 20
-2.8132
 30
0.0
 11
39.4433
 21
-1.0313
 31
0.0
  0
LINE
  8
2
  5
14
  6
CONTINUOUS
 62
3
 10
27.4461
 20
-2.8132
 30
0.0
 11
32.2361
 21
-2.8132
 31
0.0
  0
LINE
  8
2
  5
16
  6
CONTINUOUS
 62
3
 10
32.6114
 20
-2.8132
 30
0.0
 11
39.7992
 21
-2.8132
 31
0.0
  0
LINE
  8
2
  5
18
  6
CONTINUOUS
 62
3
 10
27.4298
 20
-2.9382
 30
0.0
 11
32.2307
 21
-2.9382
 31
0.0
  0
LINE
  8
2
  5
1A
  6
CONTINUOUS
 62
3
 10
32.606
 20
-2.9382
 30
0.0
 11
39.8154
 21
-2.9382
 31
0.0
  0
LINE
  8
2
  5
1C
  6
CONTINUOUS
 62
3
 10
27.2868
 20
-4.0476
 30
0.0
 11
32.183
 21
-4.0476
 31
0.0
  0
LINE
  8
2
  5
1E
  6
CONTINUOUS
 62
3
 10
32.5583
 20
-4.0476
 30
0.0
 11
39.9587
 21
-4.0476
 31
0.0
  0
LINE
  8
2
  5
20
  6
CONTINUOUS
 62
3
 10
26.7666
 20
-4.1726
 30
0.0
 11
32.1777
 21
-4.1726
 31
0.0
  0
LINE
  8
2
  5
22
  6
CONTINUOUS
 62
3
 10
32.1777
 20
-4.1726
 30
0.0
 11
42.2435
 21
-4.1726
 31
0.0
  0
LINE
  8
1
  5
24
  6
CONTINUOUS
 62
3
 10
40.2268
 20
-4.1726
 30
0.0
 11
39.8215
 21
-1.0313
 31
0.0
  0
LINE
  8
2
  5
26
  6
DIVIDE
 62
6
 10
37.2019
 20
-4.1726
 30
0.0
 11
36.7966
 21
-1.0313
 31
0.0
  0
LINE
  8
2
  5
28
  6
DIVIDE
 62
6
 10
32.428
 20
-4.1726
 30
0.0
 11
32.5631
 21
-1.0313
 31
0.0
  0
LINE
  8
2
  5
2A
  6
HIDDEN
 62
4
 10
32.1777
 20
-4.1726
 30
0.0
 11
32.3128
 21
-1.0313
 31
0.0
  0
LINE
  8
2
  5
2C
  6
CONTINUOUS
 62
3
 10
32.5529
 20
-4.1726
 30
0.0
 11
32.688
 21
-1.0313
 31
0.0
  0
LINE
  8
2
  5
2E
  6
CENTER
 62
1
 10
7.4834
 20
-17.4789
 30
0.0
 11
77.8024
 21
-17.4789
 31
0.0
  0
ARC
  8
1
  5
30
  6
CONTINUOUS
 62
3
 10
9.519711
 20
-17.479037
 30
0.0
 40
0.800027
 50
118.1303527778
 51
179.9813944444
  0
ARC
  8
1
  5
32
  6
CONTINUOUS
 62
3
 10
9.519711
 20
-17.478518
 30
0.0
 40
0.800027
 50
180.0186055556
 51
241.8696472222
  0
POLYLINE
  8
1
  5
34
  6
CONTINUOUS
 62
3
 10
0.0
 20
0.0
 30
0.0
 66
1
 70
0
  0
VERTEX
  8
1
  5
35
  6
CONTINUOUS
 62
3
 10
9.142524
 20
-16.773553
 30
0.0
 42
-0.037622
  0
VERTEX
  8
1
  5
36
  6
CONTINUOUS
 62
3
 10
11.611882
 20
-15.875436
 30
0.0
 42
-0.036059
  0
VERTEX
  8
1
  5
37
  6
CONTINUOUS
 62
3
 10
14.241297
 20
-15.337105
 30
0.0
 42
-0.036059
  0
SEQEND
  8
1
  5
38
  0
LINE
  8
2
  5
3A
  6
CENTER
 62
1
 10
45.2593
 20
-7.9004
 30
0.0
 11
14.3309
 21
-7.9004
 31
0.0
  0
LINE
  8
1
  5
3C
  6
CONTINUOUS
 62
3
 10
18.5011
 20
-9.1504
 30
0.0
 11
18.5011
 21
-6.6503
 31
0.0
  0
LINE
  8
1
  5
3E
  6
CONTINUOUS
 62
3
 10
15.8968
 20
-7.7733
 30
0.0
 11
15.8968
 21
-8.0274
 31
0.0
  0
LINE
  8
1
  5
40
  6
CONTINUOUS
 62
3
 10
18.3742
 20
-9.1149
 30
0.0
 11
18.3742
 21
-6.6858
 31
0.0
  0
ARC
  8
1
  5
42
  6
CONTINUOUS
 62
3
 10
20.008227
 20
-2.027645
 30
0.0
 40
7.27329
 50
235.5779916667
 51
257.0165277778
  0
ARC
  8
1
  5
44
  6
CONTINUOUS
 62
3
 10
20.008227
 20
-13.773058
 30
0.0
 40
7.27329
 50
102.9834722222
 51
124.4220083333
  0
LINE
  8
1
  5
46
  6
CONTINUOUS
 62
3
 10
26.678
 20
-5.7416
 30
0.0
 11
26.1719
 21
-10.0557
 31
0.0
  0
ARC
  8
1
  5
48
  6
CONTINUOUS
 62
3
 10
26.651771
 20
26.953415
 30
0.0
 40
37.0124
 50
257.2784277778
 51
269.0027583333
  0
ARC
  8
1
  5
4A
  6
CONTINUOUS
 62
3
 10
26.651771
 20
-42.754118
 30
0.0
 40
37.0124
 50
90.1358472222
 51
102.7215722222
  0
LINE
  8
1
  5
4C
  6
CONTINUOUS
 62
3
 10
26.5641
 20
-5.7417
 30
0.0
 11
26.7666
 21
-4.1726
 31
0.0
  0
LINE
  8
2
  5
4E
  6
HIDDEN
 62
4
 10
26.0077
 20
-10.0534
 30
0.0
 11
26.5641
 21
-5.7417
 31
0.0
  0
ARC
  8
2
  5
50
  6
CONTINUOUS
 62
3
 10
26.651771
 20
26.953415
 30
0.0
 40
37.0124
 50
269.0028138889
 51
269.2569777778
  0
ARC
  8
2
  5
52
  6
CONTINUOUS
 62
3
 10
26.651771
 20
-42.754118
 30
0.0
 40
37.0124
 50
89.9593666667
 51
90.1358277778
  0
LINE
  8
1
  5
54
  6
CONTINUOUS
 62
3
 10
63.4928
 20
-17.4988
 30
0.0
 11
63.4928
 21
-17.4589
 31
0.0
  0
LINE
  8
1
  5
56
  6
CONTINUOUS
 62
3
 10
63.7229
 20
-17.2288
 30
0.0
 11
72.2592
 21
-17.2288
 31
0.0
  0
LINE
  8
1
  5
58
  6
CONTINUOUS
 62
3
 10
63.7229
 20
-17.7287
 30
0.0
 11
72.2592
 21
-17.7287
 31
0.0
  0
ARC
  8
1
  5
5A
  6
CONTINUOUS
 62
3
 10
63.722879
 20
-17.458777
 30
0.0
 40
0.230008
 50
90.0
 51
180.0
  0
ARC
  8
1
  5
5C
  6
CONTINUOUS
 62
3
 10
63.722879
 20
-17.498778
 30
0.0
 40
0.230008
 50
180.0
 51
270.0
  0
LINE
  8
2
  5
5E
  6
CONTINUOUS
 62
3
 10
27.2544
 20
-4.2976
 30
0.0
 11
27.2706
 21
-4.1726
 31
0.0
  0
LINE
  8
2
  5
60
  6
CONTINUOUS
 62
3
 10
39.9909
 20
-4.2976
 30
0.0
 11
39.9746
 21
-4.1726
 31
0.0
  0
LINE
  8
2
  5
62
  6
DIVIDE
 62
6
 10
38.919
 20
-17.4789
 30
0.0
 11
37.2019
 21
-4.1726
 31
0.0
  0
LINE
  8
2
  5
64
  6
CONTINUOUS
 62
3
 10
27.0818
 20
-5.6352
 30
0.0
 11
27.0979
 21
-5.5102
 31
0.0
  0
LINE
  8
2
  5
66
  6
CONTINUOUS
 62
3
 10
26.4877
 20
-10.2373
 30
0.0
 11
26.5039
 21
-10.1124
 31
0.0
  0
LINE
  8
2
  5
68
  6
CONTINUOUS
 62
3
 10
27.3502
 20
-5.5102
 30
0.0
 11
27.5066
 21
-4.2976
 31
0.0
  0
LINE
  8
2
  5
6A
  6
CONTINUOUS
 62
3
 10
40.0213
 20
-5.5102
 30
0.0
 11
39.8648
 21
-4.2976
 31
0.0
  0
LINE
  8
2
  5
6C
  6
CONTINUOUS
 62
3
 10
40.6153
 20
-10.1124
 30
0.0
 11
40.0375
 21
-5.6352
 31
0.0
  0
LINE
  8
2
  5
6E
  6
CONTINUOUS
 62
3
 10
25.9716
 20
-14.2374
 30
0.0
 11
25.9876
 21
-14.1125
 31
0.0
  0
LINE
  8
2
  5
70
  6
HIDDEN
 62
4
 10
25.8052
 20
-17.4789
 30
0.0
 11
26.2071
 21
-14.3655
 31
0.0
  0
LINE
  8
2
  5
72
  6
HIDDEN
 62
4
 10
25.0494
 20
-17.4789
 30
0.0
 11
25.4472
 21
-14.3964
 31
0.0
  0
LINE
  8
1
  5
74
  6
CONTINUOUS
 62
3
 10
25.4472
 20
-14.3964
 30
0.0
 11
26.0077
 21
-10.0534
 31
0.0
  0
LINE
  8
2
  5
76
  6
HIDDEN
 62
4
 10
43.9608
 20
-17.4789
 30
0.0
 11
43.6079
 21
-14.7452
 31
0.0
  0
LINE
  8
2
  5
78
  6
HIDDEN
 62
4
 10
41.9441
 20
-17.4789
 30
0.0
 11
41.5759
 21
-14.6251
 31
0.0
  0
LINE
  8
2
  5
7A
  6
HIDDEN
 62
4
 10
41.566
 20
-17.4789
 30
0.0
 11
41.1948
 21
-14.6034
 31
0.0
  0
LINE
  8
2
  5
7C
  6
CONTINUOUS
 62
3
 10
41.1948
 20
-14.6034
 30
0.0
 11
41.1476
 21
-14.2374
 31
0.0
  0
LINE
  8
2
  5
7E
  6
CONTINUOUS
 62
3
 10
41.1314
 20
-14.1125
 30
0.0
 11
40.6313
 21
-10.2373
 31
0.0
  0
LINE
  8
2
  5
80
  6
CONTINUOUS
 62
3
 10
41.2735
 20
-14.2374
 30
0.0
 11
41.2574
 21
-14.1125
 31
0.0
  0
LINE
  8
2
  5
82
  6
CONTINUOUS
 62
3
 10
40.1633
 20
-5.6352
 30
0.0
 11
40.1472
 21
-5.5102
 31
0.0
  0
LINE
  8
1
  5
84
  6
CONTINUOUS
 62
3
 10
18.5011
 20
-25.8072
 30
0.0
 11
18.5011
 21
-28.3072
 31
0.0
  0
ARC
  8
13
  5
86
  6
CONTINUOUS
 62
3
 10
26.651771
 20
-61.910969
 30
0.0
 40
37.0124
 50
90.9972416667
 51
102.7215722222
  0
ARC
  8
13
  5
88
  6
CONTINUOUS
 62
3
 10
26.651771
 20
7.796563
 30
0.0
 40
37.0124
 50
257.2784277778
 51
269.8641527778
  0
LINE
  8
1
  5
8A
  6
CONTINUOUS
 62
3
 10
26.5641
 20
-29.2158
 30
0.0
 11
26.7666
 21
-30.785
 31
0.0
  0
LINE
  8
2
  5
8C
  6
HIDDEN
 62
4
 10
26.0077
 20
-24.9041
 30
0.0
 11
26.5641
 21
-29.2158
 31
0.0
  0
ARC
  8
2
  5
8E
  6
CONTINUOUS
 62
3
 10
26.651771
 20
-61.910969
 30
0.0
 40
37.0124
 50
90.7430222222
 51
90.9971861111
  0
ARC
  8
2
  5
90
  6
CONTINUOUS
 62
3
 10
26.651771
 20
7.796563
 30
0.0
 40
37.0124
 50
269.8641722222
 51
270.0406333333
  0
LINE
  8
2
  5
92
  6
CONTINUOUS
 62
3
 10
27.2544
 20
-30.6599
 30
0.0
 11
27.2868
 21
-30.9099
 31
0.0
  0
LINE
  8
1
  5
94
  6
CONTINUOUS
 62
3
 10
42.2435
 20
-30.785
 30
0.0
 11
42.0103
 21
-32.5922
 31
0.0
  0
LINE
  8
2
  5
96
  6
CONTINUOUS
 62
3
 10
39.9909
 20
-30.6599
 30
0.0
 11
39.9587
 21
-30.9099
 31
0.0
  0
LINE
  8
2
  5
98
  6
DIVIDE
 62
6
 10
32.428
 20
-30.785
 30
0.0
 11
32.5056
 21
-32.5922
 31
0.0
  0
LINE
  8
2
  5
9A
  6
DIVIDE
 62
6
 10
38.919
 20
-17.4789
 30
0.0
 11
36.9687
 21
-32.5922
 31
0.0
  0
LINE
  8
2
  5
9C
  6
CONTINUOUS
 62
3
 10
27.5388
 20
-30.9099
 30
0.0
 11
27.682
 21
-32.0193
 31
0.0
  0
LINE
  8
2
  5
9E
  6
CONTINUOUS
 62
3
 10
27.0818
 20
-29.3223
 30
0.0
 11
27.0979
 21
-29.4473
 31
0.0
  0
LINE
  8
2
  5
A0
  6
CONTINUOUS
 62
3
 10
26.4877
 20
-24.7201
 30
0.0
 11
26.5039
 21
-24.8452
 31
0.0
  0
LINE
  8
2
  5
A2
  6
CONTINUOUS
 62
3
 10
27.3502
 20
-29.4473
 30
0.0
 11
27.5066
 21
-30.6599
 31
0.0
  0
LINE
  8
2
  5
A4
  6
CONTINUOUS
 62
3
 10
40.0213
 20
-29.4473
 30
0.0
 11
39.8648
 21
-30.6599
 31
0.0
  0
LINE
  8
2
  5
A6
  6
CONTINUOUS
 62
3
 10
40.6153
 20
-24.8452
 30
0.0
 11
40.0375
 21
-29.3223
 31
0.0
  0
LINE
  8
2
  5
A8
  6
CONTINUOUS
 62
3
 10
25.9716
 20
-20.72
 30
0.0
 11
25.9876
 21
-20.8451
 31
0.0
  0
LINE
  8
2
  5
AA
  6
HIDDEN
 62
4
 10
25.8052
 20
-17.4789
 30
0.0
 11
26.2071
 21
-20.5921
 31
0.0
  0
LINE
  8
2
  5
AC
  6
HIDDEN
 62
4
 10
25.0494
 20
-17.4789
 30
0.0
 11
25.4472
 21
-20.5613
 31
0.0
  0
LINE
  8
1
  5
AE
  6
CONTINUOUS
 62
3
 10
25.4472
 20
-20.5613
 30
0.0
 11
26.0077
 21
-24.9041
 31
0.0
  0
LINE
  8
2
  5
B0
  6
HIDDEN
 62
4
 10
43.9608
 20
-17.4789
 30
0.0
 11
43.6079
 21
-20.2125
 31
0.0
  0
LINE
  8
2
  5
B2
  6
HIDDEN
 62
4
 10
41.9441
 20
-17.4789
 30
0.0
 11
41.5759
 21
-20.3325
 31
0.0
  0
LINE
  8
2
  5
B4
  6
HIDDEN
 62
4
 10
41.566
 20
-17.4789
 30
0.0
 11
41.1948
 21
-20.3541
 31
0.0
  0
LINE
  8
2
  5
B6
  6
CONTINUOUS
 62
3
 10
41.1948
 20
-20.3541
 30
0.0
 11
41.1476
 21
-20.72
 31
0.0
  0
LINE
  8
2
  5
B8
  6
CONTINUOUS
 62
3
 10
41.1314
 20
-20.8451
 30
0.0
 11
40.6313
 21
-24.7201
 31
0.0
  0
LINE
  8
2
  5
BA
  6
CONTINUOUS
 62
3
 10
41.2735
 20
-20.72
 30
0.0
 11
41.2574
 21
-20.8451
 31
0.0
  0
LINE
  8
2
  5
BC
  6
CONTINUOUS
 62
3
 10
40.1633
 20
-29.3223
 30
0.0
 11
40.1472
 21
-29.4473
 31
0.0
  0
LINE
  8
2
  5
BE
  6
CONTINUOUS
 62
3
 10
27.3195
 20
-5.7478
 30
0.0
 11
27.3339
 21
-5.6352
 31
0.0
  0
LINE
  8
2
  5
C0
  6
CONTINUOUS
 62
3
 10
26.7561
 20
-10.1124
 30
0.0
 11
26.763
 21
-10.0588
 31
0.0
  0
LINE
  8
2
  5
C2
  6
HIDDEN
 62
4
 10
26.763
 20
-10.0588
 30
0.0
 11
27.3195
 21
-5.7478
 31
0.0
  0
LINE
  8
2
  5
C4
  6
CONTINUOUS
 62
3
 10
26.7561
 20
-24.8452
 30
0.0
 11
26.763
 21
-24.8987
 31
0.0
  0
LINE
  8
2
  5
C6
  6
HIDDEN
 62
4
 10
26.763
 20
-24.8987
 30
0.0
 11
27.3194
 21
-29.2091
 31
0.0
  0
LINE
  8
2
  5
C8
  6
CONTINUOUS
 62
3
 10
27.3195
 20
-29.2097
 30
0.0
 11
27.3339
 21
-29.3223
 31
0.0
  0
LINE
  8
1
  5
CA
  6
HIDDEN
 62
4
 10
50.3997
 20
-19.5489
 30
0.0
 11
50.3997
 21
-15.4088
 31
0.0
  0
LINE
  8
1
  5
CC
  6
CONTINUOUS
 62
2
 10
36.3039
 20
-18.5347
 30
0.0
 11
36.3039
 21
-16.4229
 31
0.0
  0
ARC
  8
1
  5
CE
  6
CONTINUOUS
 62
2
 10
43.591804
 20
-78.594483
 30
0.0
 40
63.551465
 50
83.9662027778
 51
92.6907277778
  0
ARC
  8
1
  5
D0
  6
CONTINUOUS
 62
2
 10
43.591804
 20
43.636928
 30
0.0
 40
63.551465
 50
267.3092722222
 51
276.0337972222
  0
INSERT
  8
2
  5
D2
  6
CONTINUOUS
 62
3
  2
PROP
 10
15.8968
 20
-7.9004
 30
0.0
 41
1.000033
 42
1.000033
 43
1.0
 70
1
 71
1
  0
LINE
  8
2
  5
D4
  6
CONTINUOUS
 62
3
 10
27.4299
 20
-32.0193
 30
0.0
 11
27.4461
 21
-32.1444
 31
0.0
  0
LINE
  8
2
  5
D6
  6
CONTINUOUS
 62
3
 10
27.6982
 20
-32.1444
 30
0.0
 11
27.7559
 21
-32.5922
 31
0.0
  0
LINE
  8
2
  5
D8
  6
CONTINUOUS
 62
3
 10
39.8154
 20
-32.0193
 30
0.0
 11
39.7992
 21
-32.1444
 31
0.0
  0
LINE
  8
2
  5
DA
  6
CONTINUOUS
 62
3
 10
39.8325
 20
-30.9099
 30
0.0
 11
39.6894
 21
-32.0193
 31
0.0
  0
LINE
  8
2
  5
DC
  6
CONTINUOUS
 62
3
 10
39.6733
 20
-32.1444
 30
0.0
 11
39.6155
 21
-32.5922
 31
0.0
  0
LINE
  8
1
  5
DE
  6
CONTINUOUS
 62
3
 10
72.2592
 20
-17.2288
 30
0.0
 11
72.2592
 21
-7.4304
 31
0.0
  0
LINE
  8
2
  5
E0
  6
CONTINUOUS
 62
3
 10
25.9716
 20
-20.72
 30
0.0
 11
25.9876
 21
-20.8451
 31
0.0
  0
LINE
  8
2
  5
E2
  6
CONTINUOUS
 62
3
 10
41.5759
 20
-20.3325
 30
0.0
 11
40.2269
 21
-30.785
 31
0.0
  0
LINE
  8
2
  5
E4
  6
CONTINUOUS
 62
3
 10
40.2269
 20
-30.785
 30
0.0
 11
39.9937
 21
-32.5922
 31
0.0
  0
LINE
  8
2
  5
E6
  6
CONTINUOUS
 62
3
 10
40.7412
 20
-24.8452
 30
0.0
 11
40.7574
 21
-24.7201
 31
0.0
  0
LINE
  8
2
  5
E8
  6
CONTINUOUS
 62
3
 10
41.5759
 20
-14.6251
 30
0.0
 11
40.2269
 21
-4.1726
 31
0.0
  0
LINE
  8
2
  5
EA
  6
CONTINUOUS
 62
3
 10
40.7412
 20
-10.1124
 30
0.0
 11
40.7574
 21
-10.2373
 31
0.0
  0
LINE
  8
2
  5
EC
  6
CONTINUOUS
 62
3
 10
10.2197
 20
-18.6278
 30
0.0
 11
10.2197
 21
-16.3298
 31
0.0
  0
LINE
  8
2
  5
EE
  6
CONTINUOUS
 62
3
 10
14.2413
 20
-15.3371
 30
0.0
 11
14.2413
 21
-19.6205
 31
0.0
  0
LINE
  8
2
  5
F0
  6
CONTINUOUS
 62
3
 10
14.3664
 20
-15.4475
 30
0.0
 11
14.3664
 21
-19.51
 31
0.0
  0
LINE
  8
2
  5
F2
  6
HIDDEN
 62
4
 10
23.0592
 20
-9.2368
 30
0.0
 11
22.6483
 21
-9.2368
 31
0.0
  0
LINE
  8
2
  5
F4
  6
HIDDEN
 62
4
 10
22.6483
 20
-6.5486
 30
0.0
 11
23.0592
 21
-6.5486
 31
0.0
  0
LINE
  8
2
  5
F6
  6
HIDDEN
 62
4
 10
22.4915
 20
-6.7277
 30
0.0
 11
22.6483
 21
-6.7277
 31
0.0
  0
LINE
  8
2
  5
F8
  6
HIDDEN
 62
4
 10
22.6483
 20
-6.9742
 30
0.0
 11
22.4915
 21
-6.9742
 31
0.0
  0
LINE
  8
2
  5
FA
  6
HIDDEN
 62
4
 10
22.4915
 20
-6.9742
 30
0.0
 11
22.4915
 21
-6.7277
 31
0.0
  0
LINE
  8
2
  5
FC
  6
HIDDEN
 62
4
 10
22.6483
 20
-9.2368
 30
0.0
 11
22.6483
 21
-6.5486
 31
0.0
  0
LINE
  8
2
  5
FE
  6
HIDDEN
 62
4
 10
22.4915
 20
-9.1024
 30
0.0
 11
22.4915
 21
-8.8741
 31
0.0
  0
LINE
  8
2
  5
100
  6
HIDDEN
 62
4
 10
22.6483
 20
-9.1024
 30
0.0
 11
22.4915
 21
-9.1024
 31
0.0
  0
LINE
  8
2
  5
102
  6
HIDDEN
 62
4
 10
20.3988
 20
-6.658
 30
0.0
 11
22.6483
 21
-6.5486
 31
0.0
  0
LINE
  8
2
  5
104
  6
HIDDEN
 62
4
 10
20.3995
 20
-9.1376
 30
0.0
 11
22.6483
 21
-9.2368
 31
0.0
  0
LINE
  8
2
  5
106
  6
HIDDEN
 62
4
 10
20.256
 20
-8.6835
 30
0.0
 11
20.3155
 21
-8.6835
 31
0.0
  0
LINE
  8
2
  5
108
  6
HIDDEN
 62
4
 10
20.256
 20
-7.1171
 30
0.0
 11
20.3155
 21
-7.1171
 31
0.0
  0
CIRCLE
  8
2
  5
10A
  6
HIDDEN
 62
4
 10
20.99374
 20
-7.900241
 30
0.0
 40
0.963141
  0
CIRCLE
  8
2
  5
10C
  6
HIDDEN
 62
4
 10
20.99374
 20
-7.900241
 30
0.0
 40
0.068746
  0
CIRCLE
  8
2
  5
10E
  6
HIDDEN
 62
4
 10
19.235005
 20
-7.917796
 30
0.0
 40
0.340031
  0
LINE
  8
2
  5
110
  6
HIDDEN
 62
4
 10
19.7705
 20
-7.2262
 30
0.0
 11
19.7705
 21
-8.482
 31
0.0
  0
LINE
  8
2
  5
112
  6
HIDDEN
 62
4
 10
18.8638
 20
-7.2262
 30
0.0
 11
18.8638
 21
-8.482
 31
0.0
  0
LINE
  8
2
  5
114
  6
HIDDEN
 62
4
 10
18.8638
 20
-8.482
 30
0.0
 11
19.7705
 21
-8.482
 31
0.0
  0
LINE
  8
2
  5
116
  6
HIDDEN
 62
4
 10
18.8638
 20
-7.2262
 30
0.0
 11
19.7705
 21
-7.2262
 31
0.0
  0
ARC
  8
2
  5
118
  6
HIDDEN
 62
4
 10
19.318406
 20
-7.900241
 30
0.0
 40
0.272312
 50
97.6317138889
 51
286.1420055556
  0
CIRCLE
  8
2
  5
11A
  6
HIDDEN
 62
4
 10
19.235005
 20
-7.917796
 30
0.0
 40
0.291311
  0
CIRCLE
  8
2
  5
11C
  6
HIDDEN
 62
4
 10
19.589721
 20
-8.281758
 30
0.0
 40
0.072792
  0
LINE
  8
2
  5
11E
  6
HIDDEN
 62
4
 10
19.1326
 20
-7.1117
 30
0.0
 11
19.1326
 21
-7.2262
 31
0.0
  0
LINE
  8
2
  5
120
  6
HIDDEN
 62
4
 10
19.2093
 20
-6.1726
 30
0.0
 11
19.2093
 21
-6.8836
 31
0.0
  0
LINE
  8
2
  5
122
  6
HIDDEN
 62
4
 10
19.5499
 20
-6.1726
 30
0.0
 11
19.5499
 21
-6.8836
 31
0.0
  0
LINE
  8
2
  5
124
  6
HIDDEN
 62
4
 10
19.6266
 20
-7.1117
 30
0.0
 11
19.6266
 21
-7.2262
 31
0.0
  0
LINE
  8
2
  5
126
  6
HIDDEN
 62
4
 10
19.1326
 20
-7.1117
 30
0.0
 11
19.6266
 21
-7.1117
 31
0.0
  0
LINE
  8
2
  5
128
  6
HIDDEN
 62
4
 10
19.2365
 20
-6.1381
 30
0.0
 11
19.5227
 21
-6.1381
 31
0.0
  0
LINE
  8
2
  5
12A
  6
HIDDEN
 62
4
 10
19.2093
 20
-6.1726
 30
0.0
 11
19.5499
 21
-6.1726
 31
0.0
  0
LINE
  8
2
  5
12C
  6
HIDDEN
 62
4
 10
19.2093
 20
-6.1726
 30
0.0
 11
19.2365
 21
-6.1381
 31
0.0
  0
LINE
  8
2
  5
12E
  6
HIDDEN
 62
4
 10
19.5499
 20
-6.1726
 30
0.0
 11
19.5227
 21
-6.1381
 31
0.0
  0
LINE
  8
2
  5
130
  6
HIDDEN
 62
4
 10
19.2093
 20
-6.5772
 30
0.0
 11
19.5499
 21
-6.5772
 31
0.0
  0
LINE
  8
2
  5
132
  6
HIDDEN
 62
4
 10
19.2387
 20
-6.5772
 30
0.0
 11
19.2387
 21
-6.1726
 31
0.0
  0
LINE
  8
2
  5
134
  6
HIDDEN
 62
4
 10
19.2699
 20
-6.5772
 30
0.0
 11
19.2699
 21
-6.1726
 31
0.0
  0
LINE
  8
2
  5
136
  6
HIDDEN
 62
4
 10
19.3012
 20
-6.5772
 30
0.0
 11
19.3012
 21
-6.1726
 31
0.0
  0
LINE
  8
2
  5
138
  6
HIDDEN
 62
4
 10
19.3325
 20
-6.5772
 30
0.0
 11
19.3325
 21
-6.1726
 31
0.0
  0
LINE
  8
2
  5
13A
  6
HIDDEN
 62
4
 10
19.3635
 20
-6.5772
 30
0.0
 11
19.3635
 21
-6.1726
 31
0.0
  0
LINE
  8
2
  5
13C
  6
HIDDEN
 62
4
 10
19.395
 20
-6.5772
 30
0.0
 11
19.395
 21
-6.1726
 31
0.0
  0
LINE
  8
2
  5
13E
  6
HIDDEN
 62
4
 10
19.4262
 20
-6.5772
 30
0.0
 11
19.4262
 21
-6.1726
 31
0.0
  0
LINE
  8
2
  5
140
  6
HIDDEN
 62
4
 10
19.4575
 20
-6.5772
 30
0.0
 11
19.4575
 21
-6.1726
 31
0.0
  0
LINE
  8
2
  5
142
  6
HIDDEN
 62
4
 10
19.4886
 20
-6.5772
 30
0.0
 11
19.4886
 21
-6.1726
 31
0.0
  0
LINE
  8
2
  5
144
  6
HIDDEN
 62
4
 10
19.52
 20
-6.5772
 30
0.0
 11
19.52
 21
-6.1726
 31
0.0
  0
LINE
  8
2
  5
146
  6
HIDDEN
 62
4
 10
19.2093
 20
-6.8836
 30
0.0
 11
19.5499
 21
-6.8836
 31
0.0
  0
LINE
  8
2
  5
148
  6
HIDDEN
 62
4
 10
19.2093
 20
-6.9268
 30
0.0
 11
19.5499
 21
-6.9268
 31
0.0
  0
LINE
  8
2
  5
14A
  6
HIDDEN
 62
4
 10
19.5499
 20
-6.9268
 30
0.0
 11
19.5499
 21
-7.1117
 31
0.0
  0
LINE
  8
2
  5
14C
  6
HIDDEN
 62
4
 10
19.2093
 20
-6.9268
 30
0.0
 11
19.2093
 21
-7.1117
 31
0.0
  0
LINE
  8
2
  5
14E
  6
HIDDEN
 62
4
 10
19.2572
 20
-6.9268
 30
0.0
 11
19.2572
 21
-6.8836
 31
0.0
  0
LINE
  8
2
  5
150
  6
HIDDEN
 62
4
 10
19.5021
 20
-6.9268
 30
0.0
 11
19.5021
 21
-6.8836
 31
0.0
  0
LINE
  8
2
  5
152
  6
HIDDEN
 62
4
 10
18.59
 20
-7.4059
 30
0.0
 11
18.59
 21
-8.3947
 31
0.0
  0
LINE
  8
2
  5
154
  6
HIDDEN
 62
4
 10
18.6927
 20
-8.2147
 30
0.0
 11
18.6927
 21
-7.5858
 31
0.0
  0
LINE
  8
2
  5
156
  6
HIDDEN
 62
4
 10
17.5469
 20
-8.0537
 30
0.0
 11
17.5469
 21
-7.737
 31
0.0
  0
LINE
  8
2
  5
158
  6
HIDDEN
 62
4
 10
17.6719
 20
-8.0537
 30
0.0
 11
17.6719
 21
-7.737
 31
0.0
  0
LINE
  8
2
  5
15A
  6
HIDDEN
 62
4
 10
17.7969
 20
-8.0537
 30
0.0
 11
17.7969
 21
-7.737
 31
0.0
  0
LINE
  8
2
  5
15C
  6
HIDDEN
 62
4
 10
17.922
 20
-8.0537
 30
0.0
 11
17.922
 21
-7.737
 31
0.0
  0
LINE
  8
2
  5
15E
  6
HIDDEN
 62
4
 10
18.0468
 20
-8.0537
 30
0.0
 11
18.0468
 21
-7.737
 31
0.0
  0
LINE
  8
2
  5
160
  6
HIDDEN
 62
4
 10
18.1718
 20
-8.0537
 30
0.0
 11
18.1718
 21
-7.737
 31
0.0
  0
LINE
  8
2
  5
162
  6
HIDDEN
 62
4
 10
18.2969
 20
-8.0537
 30
0.0
 11
18.2969
 21
-7.737
 31
0.0
  0
LINE
  8
2
  5
164
  6
HIDDEN
 62
4
 10
17.4186
 20
-7.737
 30
0.0
 11
18.3742
 21
-7.737
 31
0.0
  0
LINE
  8
2
  5
166
  6
HIDDEN
 62
4
 10
18.3742
 20
-7.4059
 30
0.0
 11
18.59
 21
-7.4059
 31
0.0
  0
LINE
  8
2
  5
168
  6
HIDDEN
 62
4
 10
18.59
 20
-7.4059
 30
0.0
 11
18.6927
 21
-7.5858
 31
0.0
  0
LINE
  8
2
  5
16A
  6
HIDDEN
 62
4
 10
18.3742
 20
-8.3947
 30
0.0
 11
18.59
 21
-8.3947
 31
0.0
  0
LINE
  8
2
  5
16C
  6
HIDDEN
 62
4
 10
18.59
 20
-8.3947
 30
0.0
 11
18.6927
 21
-8.2147
 31
0.0
  0
LINE
  8
2
  5
16E
  6
HIDDEN
 62
4
 10
18.3742
 20
-8.0537
 30
0.0
 11
17.4186
 21
-8.0537
 31
0.0
  0
LINE
  8
2
  5
170
  6
HIDDEN
 62
4
 10
17.4186
 20
-8.0537
 30
0.0
 11
17.4186
 21
-7.737
 31
0.0
  0
LINE
  8
2
  5
172
  6
HIDDEN
 62
4
 10
20.256
 20
-6.8079
 30
0.0
 11
20.256
 21
-7.1171
 31
0.0
  0
LINE
  8
2
  5
174
  6
HIDDEN
 62
4
 10
20.3167
 20
-6.7699
 30
0.0
 11
20.3167
 21
-7.1003
 31
0.0
  0
LINE
  8
2
  5
176
  6
HIDDEN
 62
4
 10
21.8018
 20
-6.7699
 30
0.0
 11
21.8018
 21
-7.1171
 31
0.0
  0
LINE
  8
2
  5
178
  6
HIDDEN
 62
4
 10
20.3167
 20
-8.7002
 30
0.0
 11
20.3167
 21
-8.7963
 31
0.0
  0
LINE
  8
2
  5
17A
  6
HIDDEN
 62
4
 10
21.8018
 20
-8.6835
 30
0.0
 11
21.8018
 21
-8.8062
 31
0.0
  0
LINE
  8
2
  5
17C
  6
HIDDEN
 62
4
 10
20.256
 20
-8.6835
 30
0.0
 11
20.256
 21
-8.7963
 31
0.0
  0
LINE
  8
2
  5
17E
  6
HIDDEN
 62
4
 10
21.8018
 20
-7.1171
 30
0.0
 11
22.6483
 21
-7.1171
 31
0.0
  0
LINE
  8
2
  5
180
  6
HIDDEN
 62
4
 10
21.8018
 20
-8.6835
 30
0.0
 11
22.6483
 21
-8.6835
 31
0.0
  0
LINE
  8
2
  5
182
  6
HIDDEN
 62
4
 10
20.3167
 20
-9.0306
 30
0.0
 11
21.8018
 21
-9.0306
 31
0.0
  0
ARC
  8
2
  5
184
  6
HIDDEN
 62
4
 10
21.580731
 20
-8.835291
 30
0.0
 40
0.127354
 50
197.7684666667
 51
342.2315361111
  0
ARC
  8
2
  5
186
  6
HIDDEN
 62
4
 10
20.532704
 20
-8.835291
 30
0.0
 40
0.127354
 50
13.2012916667
 51
15.1096166667
  0
POLYLINE
  8
2
  5
188
  6
HIDDEN
 62
4
 10
0.0
 20
0.0
 30
0.0
 66
1
 70
0
  0
VERTEX
  8
2
  5
189
  6
HIDDEN
 62
4
 10
21.6526
 20
-6.9238
 30
0.0
  0
VERTEX
  8
2
  5
18A
  6
HIDDEN
 62
4
 10
21.5807
 20
-6.8822
 30
0.0
  0
VERTEX
  8
2
  5
18B
  6
HIDDEN
 62
4
 10
21.5088
 20
-6.9238
 30
0.0
  0
VERTEX
  8
2
  5
18C
  6
HIDDEN
 62
4
 10
21.5088
 20
-7.0067
 30
0.0
  0
VERTEX
  8
2
  5
18D
  6
HIDDEN
 62
4
 10
21.5807
 20
-7.0481
 30
0.0
  0
VERTEX
  8
2
  5
18E
  6
HIDDEN
 62
4
 10
21.6526
 20
-7.0067
 30
0.0
  0
VERTEX
  8
2
  5
18F
  6
HIDDEN
 62
4
 10
21.6526
 20
-6.9238
 30
0.0
  0
SEQEND
  8
2
  5
190
  0
CIRCLE
  8
2
  5
192
  6
HIDDEN
 62
4
 10
21.580731
 20
-6.965191
 30
0.0
 40
0.127354
  0
ARC
  8
2
  5
194
  6
HIDDEN
 62
4
 10
20.532704
 20
-6.965191
 30
0.0
 40
0.127354
 50
344.8903833333
 51
247.6016888889
  0
LINE
  8
2
  5
196
  6
HIDDEN
 62
4
 10
20.3167
 20
-6.7699
 30
0.0
 11
21.8018
 21
-6.7699
 31
0.0
  0
POLYLINE
  8
2
  5
198
  6
HIDDEN
 62
4
 10
0.0
 20
0.0
 30
0.0
 66
1
 70
0
  0
VERTEX
  8
2
  5
199
  6
HIDDEN
 62
4
 10
20.6044
 20
-6.9238
 30
0.0
  0
VERTEX
  8
2
  5
19A
  6
HIDDEN
 62
4
 10
20.5326
 20
-6.8822
 30
0.0
  0
VERTEX
  8
2
  5
19B
  6
HIDDEN
 62
4
 10
20.4608
 20
-6.9238
 30
0.0
  0
VERTEX
  8
2
  5
19C
  6
HIDDEN
 62
4
 10
20.4608
 20
-7.0067
 30
0.0
  0
VERTEX
  8
2
  5
19D
  6
HIDDEN
 62
4
 10
20.5326
 20
-7.0481
 30
0.0
  0
VERTEX
  8
2
  5
19E
  6
HIDDEN
 62
4
 10
20.6044
 20
-7.0067
 30
0.0
  0
VERTEX
  8
2
  5
19F
  6
HIDDEN
 62
4
 10
20.6044
 20
-6.9238
 30
0.0
  0
SEQEND
  8
2
  5
1A0
  0
ARC
  8
2
  5
1A2
  6
HIDDEN
 62
4
 10
20.406074
 20
-6.807782
 30
0.0
 40
0.150005
 50
92.7862444444
 51
180.0
  0
ARC
  8
2
  5
1A4
  6
HIDDEN
 62
4
 10
20.406074
 20
-8.987754
 30
0.0
 40
0.150005
 50
180.0
 51
267.4749111111
  0
LINE
  8
2
  5
1A6
  6
HIDDEN
 62
4
 10
22.0395
 20
-7.1171
 30
0.0
 11
22.0395
 21
-8.6835
 31
0.0
  0
LINE
  8
2
  5
1A8
  6
HIDDEN
 62
4
 10
22.289
 20
-8.4837
 30
0.0
 11
22.2044
 21
-8.4837
 31
0.0
  0
LINE
  8
2
  5
1AA
  6
HIDDEN
 62
4
 10
22.289
 20
-8.617
 30
0.0
 11
22.289
 21
-8.4837
 31
0.0
  0
LINE
  8
2
  5
1AC
  6
HIDDEN
 62
4
 10
22.1858
 20
-8.617
 30
0.0
 11
22.289
 21
-8.617
 31
0.0
  0
LINE
  8
2
  5
1AE
  6
HIDDEN
 62
4
 10
22.1858
 20
-7.1835
 30
0.0
 11
22.289
 21
-7.1835
 31
0.0
  0
LINE
  8
2
  5
1B0
  6
HIDDEN
 62
4
 10
22.289
 20
-7.1835
 30
0.0
 11
22.289
 21
-7.3169
 31
0.0
  0
LINE
  8
2
  5
1B2
  6
HIDDEN
 62
4
 10
22.289
 20
-7.3169
 30
0.0
 11
22.2108
 21
-7.3169
 31
0.0
  0
ARC
  8
2
  5
1B4
  6
HIDDEN
 62
4
 10
21.919709
 20
-8.684637
 30
0.0
 40
0.117969
 50
113.7661194444
 51
179.4295
  0
ARC
  8
2
  5
1B6
  6
HIDDEN
 62
4
 10
21.919709
 20
-7.115845
 30
0.0
 40
0.117969
 50
180.5705027778
 51
246.2338833333
  0
ARC
  8
2
  5
1B8
  6
HIDDEN
 62
4
 10
17.857557
 20
-15.654966
 30
0.0
 40
7.486925
 50
82.2767888889
 51
83.5949194444
  0
ARC
  8
2
  5
1BA
  6
HIDDEN
 62
4
 10
17.857557
 20
-0.145517
 30
0.0
 40
7.486925
 50
276.4050805556
 51
277.7232111111
  0
LINE
  8
2
  5
1BC
  6
HIDDEN
 62
4
 10
19.14
 20
-8.552
 30
0.0
 11
19.5893
 21
-8.552
 31
0.0
  0
LINE
  8
2
  5
1BE
  6
HIDDEN
 62
4
 10
19.5893
 20
-8.552
 30
0.0
 11
19.5893
 21
-8.9205
 31
0.0
  0
LINE
  8
2
  5
1C0
  6
HIDDEN
 62
4
 10
19.5893
 20
-8.9205
 30
0.0
 11
19.14
 21
-8.9205
 31
0.0
  0
LINE
  8
2
  5
1C2
  6
HIDDEN
 62
4
 10
19.14
 20
-8.9205
 30
0.0
 11
19.14
 21
-8.552
 31
0.0
  0
LINE
  8
2
  5
1C4
  6
HIDDEN
 62
4
 10
19.14
 20
-8.552
 30
0.0
 11
19.0516
 21
-8.552
 31
0.0
  0
LINE
  8
2
  5
1C6
  6
HIDDEN
 62
4
 10
19.0516
 20
-8.552
 30
0.0
 11
19.0516
 21
-8.482
 31
0.0
  0
LINE
  8
2
  5
1C8
  6
HIDDEN
 62
4
 10
19.5893
 20
-8.552
 30
0.0
 11
19.6776
 21
-8.552
 31
0.0
  0
LINE
  8
2
  5
1CA
  6
HIDDEN
 62
4
 10
19.6776
 20
-8.552
 30
0.0
 11
19.6776
 21
-8.482
 31
0.0
  0
LINE
  8
2
  5
1CC
  6
HIDDEN
 62
4
 10
19.919
 20
-7.2925
 30
0.0
 11
19.919
 21
-8.4157
 31
0.0
  0
LINE
  8
2
  5
1CE
  6
HIDDEN
 62
4
 10
19.7705
 20
-8.482
 30
0.0
 11
19.919
 21
-8.4157
 31
0.0
  0
LINE
  8
2
  5
1D0
  6
HIDDEN
 62
4
 10
19.7705
 20
-7.2262
 30
0.0
 11
19.919
 21
-7.2925
 31
0.0
  0
LINE
  8
2
  5
1D2
  6
HIDDEN
 62
4
 10
20.3551
 20
-8.8062
 30
0.0
 11
20.3551
 21
-8.8741
 31
0.0
  0
LINE
  8
2
  5
1D4
  6
HIDDEN
 62
4
 10
20.3714
 20
-8.8062
 30
0.0
 11
20.3714
 21
-8.8741
 31
0.0
  0
LINE
  8
2
  5
1D6
  6
HIDDEN
 62
4
 10
20.3874
 20
-8.8062
 30
0.0
 11
20.3874
 21
-8.8741
 31
0.0
  0
LINE
  8
2
  5
1D8
  6
HIDDEN
 62
4
 10
20.4028
 20
-8.8062
 30
0.0
 11
20.4028
 21
-8.8741
 31
0.0
  0
LINE
  8
2
  5
1DA
  6
HIDDEN
 62
4
 10
20.4184
 20
-8.8062
 30
0.0
 11
20.4184
 21
-8.8741
 31
0.0
  0
LINE
  8
2
  5
1DC
  6
HIDDEN
 62
4
 10
20.4331
 20
-8.8062
 30
0.0
 11
20.4331
 21
-8.8741
 31
0.0
  0
LINE
  8
2
  5
1DE
  6
HIDDEN
 62
4
 10
20.4478
 20
-8.8062
 30
0.0
 11
20.4478
 21
-8.8741
 31
0.0
  0
LINE
  8
2
  5
1E0
  6
HIDDEN
 62
4
 10
19.6186
 20
-8.8098
 30
0.0
 11
19.6186
 21
-8.776
 31
0.0
  0
LINE
  8
2
  5
1E2
  6
HIDDEN
 62
4
 10
19.6186
 20
-8.776
 30
0.0
 11
20.1455
 21
-8.776
 31
0.0
  0
LINE
  8
2
  5
1E4
  6
HIDDEN
 62
4
 10
20.1455
 20
-8.776
 30
0.0
 11
20.1455
 21
-8.7963
 31
0.0
  0
LINE
  8
2
  5
1E6
  6
HIDDEN
 62
4
 10
20.1455
 20
-8.9124
 30
0.0
 11
19.6186
 21
-8.9124
 31
0.0
  0
LINE
  8
2
  5
1E8
  6
HIDDEN
 62
4
 10
19.6186
 20
-8.9124
 30
0.0
 11
19.6186
 21
-8.8771
 31
0.0
  0
LINE
  8
2
  5
1EA
  6
HIDDEN
 62
4
 10
20.1001
 20
-8.8098
 30
0.0
 11
20.1001
 21
-8.8771
 31
0.0
  0
LINE
  8
2
  5
1EC
  6
HIDDEN
 62
4
 10
20.1455
 20
-8.7963
 30
0.0
 11
20.341
 21
-8.7963
 31
0.0
  0
LINE
  8
2
  5
1EE
  6
HIDDEN
 62
4
 10
20.341
 20
-8.7963
 30
0.0
 11
20.341
 21
-8.8918
 31
0.0
  0
LINE
  8
2
  5
1F0
  6
HIDDEN
 62
4
 10
20.341
 20
-8.8918
 30
0.0
 11
20.1455
 21
-8.8918
 31
0.0
  0
LINE
  8
2
  5
1F2
  6
HIDDEN
 62
4
 10
20.1455
 20
-8.8918
 30
0.0
 11
20.1455
 21
-8.9124
 31
0.0
  0
LINE
  8
2
  5
1F4
  6
HIDDEN
 62
4
 10
23.0592
 20
-8.8062
 30
0.0
 11
21.3205
 21
-8.8062
 31
0.0
  0
LINE
  8
2
  5
1F6
  6
HIDDEN
 62
4
 10
23.0592
 20
-8.8741
 30
0.0
 11
20.341
 21
-8.8741
 31
0.0
  0
LINE
  8
2
  5
1F8
  6
HIDDEN
 62
4
 10
20.1001
 20
-8.8098
 30
0.0
 11
19.5893
 21
-8.8098
 31
0.0
  0
LINE
  8
2
  5
1FA
  6
HIDDEN
 62
4
 10
20.1001
 20
-8.8771
 30
0.0
 11
19.5893
 21
-8.8771
 31
0.0
  0
LINE
  8
2
  5
1FC
  6
HIDDEN
 62
4
 10
20.6058
 20
-8.8741
 30
0.0
 11
20.6058
 21
-8.8768
 31
0.0
  0
POLYLINE
  8
2
  5
1FE
  6
HIDDEN
 62
4
 10
0.0
 20
0.0
 30
0.0
 66
1
 70
0
  0
VERTEX
  8
2
  5
1FF
  6
HIDDEN
 62
4
 10
20.6058
 20
-8.8768
 30
0.0
  0
VERTEX
  8
2
  5
200
  6
HIDDEN
 62
4
 10
20.534
 20
-8.9183
 30
0.0
  0
VERTEX
  8
2
  5
201
  6
HIDDEN
 62
4
 10
20.4621
 20
-8.8768
 30
0.0
  0
VERTEX
  8
2
  5
202
  6
HIDDEN
 62
4
 10
20.4621
 20
-8.8741
 30
0.0
  0
SEQEND
  8
2
  5
203
  0
POLYLINE
  8
2
  5
205
  6
HIDDEN
 62
4
 10
0.0
 20
0.0
 30
0.0
 66
1
 70
0
  0
VERTEX
  8
2
  5
206
  6
HIDDEN
 62
4
 10
20.4621
 20
-8.8062
 30
0.0
  0
VERTEX
  8
2
  5
207
  6
HIDDEN
 62
4
 10
20.4621
 20
-8.7937
 30
0.0
  0
VERTEX
  8
2
  5
208
  6
HIDDEN
 62
4
 10
20.534
 20
-8.7523
 30
0.0
  0
VERTEX
  8
2
  5
209
  6
HIDDEN
 62
4
 10
20.6058
 20
-8.7937
 30
0.0
  0
VERTEX
  8
2
  5
20A
  6
HIDDEN
 62
4
 10
20.6058
 20
-8.8062
 30
0.0
  0
SEQEND
  8
2
  5
20B
  0
ARC
  8
2
  5
20D
  6
HIDDEN
 62
4
 10
20.532704
 20
-8.835291
 30
0.0
 40
0.127354
 50
197.7684666667
 51
342.2315361111
  0
LINE
  8
2
  5
20F
  6
HIDDEN
 62
4
 10
20.3167
 20
-8.8918
 30
0.0
 11
20.3167
 21
-9.0306
 31
0.0
  0
LINE
  8
2
  5
211
  6
HIDDEN
 62
4
 10
20.256
 20
-8.8918
 30
0.0
 11
20.256
 21
-8.9877
 31
0.0
  0
ARC
  8
2
  5
213
  6
HIDDEN
 62
4
 10
20.532704
 20
-8.835291
 30
0.0
 40
0.127354
 50
112.3983111111
 51
166.7987083333
  0
LINE
  8
2
  5
215
  6
HIDDEN
 62
4
 10
19.818
 20
-8.8771
 30
0.0
 11
19.818
 21
-8.8098
 31
0.0
  0
LINE
  8
2
  5
217
  6
HIDDEN
 62
4
 10
20.6669
 20
-8.8062
 30
0.0
 11
20.341
 21
-8.8062
 31
0.0
  0
LINE
  8
2
  5
219
  6
HIDDEN
 62
4
 10
21.8018
 20
-8.8741
 30
0.0
 11
21.8018
 21
-9.0306
 31
0.0
  0
LINE
  8
2
  5
21B
  6
HIDDEN
 62
4
 10
21.6526
 20
-8.8741
 30
0.0
 11
21.6526
 21
-8.8768
 31
0.0
  0
POLYLINE
  8
2
  5
21D
  6
HIDDEN
 62
4
 10
0.0
 20
0.0
 30
0.0
 66
1
 70
0
  0
VERTEX
  8
2
  5
21E
  6
HIDDEN
 62
4
 10
21.6526
 20
-8.8768
 30
0.0
  0
VERTEX
  8
2
  5
21F
  6
HIDDEN
 62
4
 10
21.5807
 20
-8.9183
 30
0.0
  0
VERTEX
  8
2
  5
220
  6
HIDDEN
 62
4
 10
21.5088
 20
-8.8768
 30
0.0
  0
VERTEX
  8
2
  5
221
  6
HIDDEN
 62
4
 10
21.5088
 20
-8.8741
 30
0.0
  0
SEQEND
  8
2
  5
222
  0
POLYLINE
  8
2
  5
224
  6
HIDDEN
 62
4
 10
0.0
 20
0.0
 30
0.0
 66
1
 70
0
  0
VERTEX
  8
2
  5
225
  6
HIDDEN
 62
4
 10
21.5088
 20
-8.8062
 30
0.0
  0
VERTEX
  8
2
  5
226
  6
HIDDEN
 62
4
 10
21.5088
 20
-8.7937
 30
0.0
  0
VERTEX
  8
2
  5
227
  6
HIDDEN
 62
4
 10
21.5807
 20
-8.7523
 30
0.0
  0
VERTEX
  8
2
  5
228
  6
HIDDEN
 62
4
 10
21.6526
 20
-8.7937
 30
0.0
  0
VERTEX
  8
2
  5
229
  6
HIDDEN
 62
4
 10
21.6526
 20
-8.8062
 30
0.0
  0
SEQEND
  8
2
  5
22A
  0
ARC
  8
2
  5
22C
  6
HIDDEN
 62
4
 10
21.580731
 20
-8.835291
 30
0.0
 40
0.127354
 50
13.2012916667
 51
166.7987083333
  0
LINE
  8
2
  5
22E
  6
HIDDEN
 62
4
 10
19.6988
 20
-8.482
 30
0.0
 11
19.7382
 21
-8.5092
 31
0.0
  0
LINE
  8
2
  5
230
  6
HIDDEN
 62
4
 10
19.7382
 20
-8.5092
 30
0.0
 11
20.2147
 21
-8.5815
 31
0.0
  0
LINE
  8
2
  5
232
  6
HIDDEN
 62
4
 10
19.8712
 20
-7.2712
 30
0.0
 11
20.2147
 21
-7.219
 31
0.0
  0
ARC
  8
2
  5
234
  6
HIDDEN
 62
4
 10
20.196683
 20
-7.100323
 30
0.0
 40
0.120004
 50
278.6378583333
 51
0.0
  0
ARC
  8
2
  5
236
  6
HIDDEN
 62
4
 10
20.196683
 20
-8.700159
 30
0.0
 40
0.120004
 50
0.0
 51
81.3621416667
  0
POLYLINE
  8
2
  5
238
  6
HIDDEN
 62
4
 10
0.0
 20
0.0
 30
0.0
 66
1
 70
0
  0
VERTEX
  8
2
  5
239
  6
HIDDEN
 62
4
 10
21.1586
 20
-7.9954
 30
0.0
  0
VERTEX
  8
2
  5
23A
  6
HIDDEN
 62
4
 10
20.9936
 20
-8.0906
 30
0.0
  0
VERTEX
  8
2
  5
23B
  6
HIDDEN
 62
4
 10
20.8289
 20
-7.9954
 30
0.0
  0
VERTEX
  8
2
  5
23C
  6
HIDDEN
 62
4
 10
20.8289
 20
-7.8052
 30
0.0
  0
VERTEX
  8
2
  5
23D
  6
HIDDEN
 62
4
 10
20.9936
 20
-7.7099
 30
0.0
  0
VERTEX
  8
2
  5
23E
  6
HIDDEN
 62
4
 10
21.1586
 20
-7.8052
 30
0.0
  0
VERTEX
  8
2
  5
23F
  6
HIDDEN
 62
4
 10
21.1586
 20
-7.9954
 30
0.0
  0
SEQEND
  8
2
  5
240
  0
CIRCLE
  8
2
  5
242
  6
HIDDEN
 62
4
 10
20.99374
 20
-7.900241
 30
0.0
 40
0.125083
  0
ARC
  8
2
  5
244
  6
HIDDEN
 62
4
 10
20.99374
 20
-7.900241
 30
0.0
 40
0.353051
 50
242.888275
 51
297.111725
  0
LINE
  8
2
  5
246
  6
HIDDEN
 62
4
 10
20.0328
 20
-7.9647
 30
0.0
 11
20.6466
 21
-7.9647
 31
0.0
  0
LINE
  8
2
  5
248
  6
HIDDEN
 62
4
 10
20.0328
 20
-7.8358
 30
0.0
 11
20.6466
 21
-7.8358
 31
0.0
  0
LINE
  8
2
  5
24A
  6
HIDDEN
 62
4
 10
21.3409
 20
-7.9647
 30
0.0
 11
21.9547
 21
-7.9647
 31
0.0
  0
LINE
  8
2
  5
24C
  6
HIDDEN
 62
4
 10
21.3409
 20
-7.8358
 30
0.0
 11
21.9547
 21
-7.8358
 31
0.0
  0
LINE
  8
2
  5
24E
  6
HIDDEN
 62
4
 10
21.2392
 20
-8.154
 30
0.0
 11
21.9229
 21
-8.154
 31
0.0
  0
LINE
  8
2
  5
250
  6
HIDDEN
 62
4
 10
21.3239
 20
-8.0252
 30
0.0
 11
21.9488
 21
-8.0252
 31
0.0
  0
LINE
  8
2
  5
252
  6
HIDDEN
 62
4
 10
20.0386
 20
-8.0252
 30
0.0
 11
20.6635
 21
-8.0252
 31
0.0
  0
LINE
  8
2
  5
254
  6
HIDDEN
 62
4
 10
20.0646
 20
-8.154
 30
0.0
 11
20.7482
 21
-8.154
 31
0.0
  0
LINE
  8
2
  5
256
  6
HIDDEN
 62
4
 10
21.1547
 20
-8.2145
 30
0.0
 11
21.9041
 21
-8.2145
 31
0.0
  0
LINE
  8
2
  5
258
  6
HIDDEN
 62
4
 10
20.1385
 20
-8.3432
 30
0.0
 11
20.3313
 21
-8.3432
 31
0.0
  0
LINE
  8
2
  5
25A
  6
HIDDEN
 62
4
 10
20.0833
 20
-8.2145
 30
0.0
 11
20.8328
 21
-8.2145
 31
0.0
  0
LINE
  8
2
  5
25C
  6
HIDDEN
 62
4
 10
20.1727
 20
-8.4037
 30
0.0
 11
20.3244
 21
-8.4037
 31
0.0
  0
LINE
  8
2
  5
25E
  6
HIDDEN
 62
4
 10
20.2672
 20
-8.5326
 30
0.0
 11
20.3901
 21
-8.5326
 31
0.0
  0
ARC
  8
2
  5
260
  6
HIDDEN
 62
4
 10
20.99374
 20
-7.900241
 30
0.0
 40
0.353051
 50
200.7257277778
 51
225.9352805556
  0
ARC
  8
2
  5
262
  6
HIDDEN
 62
4
 10
20.99374
 20
-7.900241
 30
0.0
 40
0.353051
 50
169.4945
 51
190.5055
  0
ARC
  8
2
  5
264
  6
HIDDEN
 62
4
 10
20.99374
 20
-7.900241
 30
0.0
 40
0.353051
 50
314.0647222222
 51
339.274275
  0
LINE
  8
2
  5
266
  6
HIDDEN
 62
4
 10
20.4912
 20
-8.7219
 30
0.0
 11
21.4963
 21
-8.7219
 31
0.0
  0
LINE
  8
2
  5
268
  6
HIDDEN
 62
4
 10
20.3247
 20
-8.5932
 30
0.0
 11
21.6627
 21
-8.5932
 31
0.0
  0
LINE
  8
2
  5
26A
  6
HIDDEN
 62
4
 10
20.6073
 20
-8.7824
 30
0.0
 11
21.3803
 21
-8.7824
 31
0.0
  0
LINE
  8
2
  5
26C
  6
HIDDEN
 62
4
 10
20.0386
 20
-7.7754
 30
0.0
 11
20.6635
 21
-7.7754
 31
0.0
  0
LINE
  8
2
  5
26E
  6
HIDDEN
 62
4
 10
20.0646
 20
-7.6466
 30
0.0
 11
20.7482
 21
-7.6466
 31
0.0
  0
LINE
  8
2
  5
270
  6
HIDDEN
 62
4
 10
21.3239
 20
-7.7754
 30
0.0
 11
21.9488
 21
-7.7754
 31
0.0
  0
LINE
  8
2
  5
272
  6
HIDDEN
 62
4
 10
21.2392
 20
-7.6466
 30
0.0
 11
21.9229
 21
-7.6466
 31
0.0
  0
LINE
  8
2
  5
274
  6
HIDDEN
 62
4
 10
21.1547
 20
-7.586
 30
0.0
 11
21.9041
 21
-7.586
 31
0.0
  0
LINE
  8
2
  5
276
  6
HIDDEN
 62
4
 10
20.0833
 20
-7.586
 30
0.0
 11
20.8328
 21
-7.586
 31
0.0
  0
LINE
  8
2
  5
278
  6
HIDDEN
 62
4
 10
20.1385
 20
-7.4571
 30
0.0
 11
20.3273
 21
-7.4571
 31
0.0
  0
LINE
  8
2
  5
27A
  6
HIDDEN
 62
4
 10
20.1727
 20
-7.3966
 30
0.0
 11
20.3214
 21
-7.3966
 31
0.0
  0
LINE
  8
2
  5
27C
  6
HIDDEN
 62
4
 10
20.2672
 20
-7.268
 30
0.0
 11
20.3909
 21
-7.268
 31
0.0
  0
LINE
  8
2
  5
27E
  6
HIDDEN
 62
4
 10
20.3247
 20
-7.2073
 30
0.0
 11
21.6627
 21
-7.2073
 31
0.0
  0
LINE
  8
2
  5
280
  6
HIDDEN
 62
4
 10
20.4912
 20
-7.0787
 30
0.0
 11
21.4963
 21
-7.0787
 31
0.0
  0
LINE
  8
2
  5
282
  6
HIDDEN
 62
4
 10
20.6073
 20
-7.018
 30
0.0
 11
21.3803
 21
-7.018
 31
0.0
  0
ARC
  8
2
  5
284
  6
HIDDEN
 62
4
 10
20.99374
 20
-7.900241
 30
0.0
 40
0.353051
 50
134.0647222222
 51
159.274275
  0
ARC
  8
2
  5
286
  6
HIDDEN
 62
4
 10
20.99374
 20
-7.900241
 30
0.0
 40
0.353051
 50
62.888275
 51
117.111725
  0
ARC
  8
2
  5
288
  6
HIDDEN
 62
4
 10
20.99374
 20
-7.900241
 30
0.0
 40
0.353051
 50
20.7257277778
 51
45.9352805556
  0
ARC
  8
2
  5
28A
  6
HIDDEN
 62
4
 10
20.99374
 20
-7.900241
 30
0.0
 40
0.353051
 50
349.4945
 51
10.5055
  0
LINE
  8
2
  5
28C
  6
HIDDEN
 62
4
 10
22.5103
 20
-9.0743
 30
0.0
 11
22.626
 21
-9.0743
 31
0.0
  0
LINE
  8
2
  5
28E
  6
HIDDEN
 62
4
 10
22.5103
 20
-9.043
 30
0.0
 11
22.626
 21
-9.043
 31
0.0
  0
LINE
  8
2
  5
290
  6
HIDDEN
 62
4
 10
22.5103
 20
-9.0118
 30
0.0
 11
22.626
 21
-9.0118
 31
0.0
  0
LINE
  8
2
  5
292
  6
HIDDEN
 62
4
 10
22.5103
 20
-8.9805
 30
0.0
 11
22.626
 21
-8.9805
 31
0.0
  0
LINE
  8
2
  5
294
  6
HIDDEN
 62
4
 10
22.5103
 20
-8.9493
 30
0.0
 11
22.626
 21
-8.9493
 31
0.0
  0
LINE
  8
2
  5
296
  6
HIDDEN
 62
4
 10
22.5103
 20
-8.918
 30
0.0
 11
22.626
 21
-8.918
 31
0.0
  0
LINE
  8
2
  5
298
  6
HIDDEN
 62
4
 10
22.5103
 20
-8.8868
 30
0.0
 11
22.626
 21
-8.8868
 31
0.0
  0
LINE
  8
2
  5
29A
  6
HIDDEN
 62
4
 10
22.5107
 20
-6.9445
 30
0.0
 11
22.6267
 21
-6.9445
 31
0.0
  0
LINE
  8
2
  5
29C
  6
HIDDEN
 62
4
 10
22.5107
 20
-6.9133
 30
0.0
 11
22.6267
 21
-6.9133
 31
0.0
  0
LINE
  8
2
  5
29E
  6
HIDDEN
 62
4
 10
22.5107
 20
-6.8819
 30
0.0
 11
22.6267
 21
-6.8819
 31
0.0
  0
LINE
  8
2
  5
2A0
  6
HIDDEN
 62
4
 10
22.5107
 20
-6.8508
 30
0.0
 11
22.6267
 21
-6.8508
 31
0.0
  0
LINE
  8
2
  5
2A2
  6
HIDDEN
 62
4
 10
22.5107
 20
-6.8194
 30
0.0
 11
22.6267
 21
-6.8194
 31
0.0
  0
LINE
  8
2
  5
2A4
  6
HIDDEN
 62
4
 10
22.5107
 20
-6.7882
 30
0.0
 11
22.6267
 21
-6.7882
 31
0.0
  0
LINE
  8
2
  5
2A6
  6
HIDDEN
 62
4
 10
22.5107
 20
-6.7569
 30
0.0
 11
22.6267
 21
-6.7569
 31
0.0
  0
LINE
  8
2
  5
2A8
  6
HIDDEN
 62
4
 10
22.1091
 20
-7.2709
 30
0.0
 11
21.7314
 21
-7.2709
 31
0.0
  0
LINE
  8
2
  5
2AA
  6
HIDDEN
 62
4
 10
22.1091
 20
-8.5194
 30
0.0
 11
21.7314
 21
-8.5194
 31
0.0
  0
LINE
  8
2
  5
2AC
  6
HIDDEN
 62
4
 10
22.1985
 20
-7.2978
 30
0.0
 11
22.2761
 21
-7.2978
 31
0.0
  0
LINE
  8
2
  5
2AE
  6
HIDDEN
 62
4
 10
22.1985
 20
-7.2666
 30
0.0
 11
22.2761
 21
-7.2666
 31
0.0
  0
LINE
  8
2
  5
2B0
  6
HIDDEN
 62
4
 10
22.1985
 20
-7.2353
 30
0.0
 11
22.2761
 21
-7.2353
 31
0.0
  0
LINE
  8
2
  5
2B2
  6
HIDDEN
 62
4
 10
22.1985
 20
-7.204
 30
0.0
 11
22.2761
 21
-7.204
 31
0.0
  0
LINE
  8
2
  5
2B4
  6
HIDDEN
 62
4
 10
22.1982
 20
-8.5954
 30
0.0
 11
22.2728
 21
-8.5954
 31
0.0
  0
LINE
  8
2
  5
2B6
  6
HIDDEN
 62
4
 10
22.1982
 20
-8.5642
 30
0.0
 11
22.2728
 21
-8.5642
 31
0.0
  0
LINE
  8
2
  5
2B8
  6
HIDDEN
 62
4
 10
22.1982
 20
-8.5329
 30
0.0
 11
22.2728
 21
-8.5329
 31
0.0
  0
LINE
  8
2
  5
2BA
  6
HIDDEN
 62
4
 10
22.1982
 20
-8.5016
 30
0.0
 11
22.2728
 21
-8.5016
 31
0.0
  0
LINE
  8
2
  5
2BC
  6
HIDDEN
 62
4
 10
22.1091
 20
-8.5006
 30
0.0
 11
22.1091
 21
-8.5194
 31
0.0
  0
LINE
  8
2
  5
2BE
  6
HIDDEN
 62
4
 10
22.1858
 20
-7.1171
 30
0.0
 11
22.1858
 21
-8.6835
 31
0.0
  0
CIRCLE
  8
2
  5
2C0
  6
HIDDEN
 62
4
 10
21.487081
 20
-8.390442
 30
0.0
 40
0.127354
  0
POLYLINE
  8
2
  5
2C2
  6
HIDDEN
 62
4
 10
0.0
 20
0.0
 30
0.0
 66
1
 70
0
  0
VERTEX
  8
2
  5
2C3
  6
HIDDEN
 62
4
 10
21.5604
 20
-8.3517
 30
0.0
  0
VERTEX
  8
2
  5
2C4
  6
HIDDEN
 62
4
 10
21.4902
 20
-8.3076
 30
0.0
  0
VERTEX
  8
2
  5
2C5
  6
HIDDEN
 62
4
 10
21.4168
 20
-8.3463
 30
0.0
  0
VERTEX
  8
2
  5
2C6
  6
HIDDEN
 62
4
 10
21.4137
 20
-8.4291
 30
0.0
  0
VERTEX
  8
2
  5
2C7
  6
HIDDEN
 62
4
 10
21.4841
 20
-8.4733
 30
0.0
  0
VERTEX
  8
2
  5
2C8
  6
HIDDEN
 62
4
 10
21.5573
 20
-8.4347
 30
0.0
  0
VERTEX
  8
2
  5
2C9
  6
HIDDEN
 62
4
 10
21.5604
 20
-8.3517
 30
0.0
  0
SEQEND
  8
2
  5
2CA
  0
POLYLINE
  8
2
  5
2CC
  6
HIDDEN
 62
4
 10
0.0
 20
0.0
 30
0.0
 66
1
 70
0
  0
VERTEX
  8
2
  5
2CD
  6
HIDDEN
 62
4
 10
20.5422
 20
-8.4669
 30
0.0
  0
VERTEX
  8
2
  5
2CE
  6
HIDDEN
 62
4
 10
20.5864
 20
-8.3968
 30
0.0
  0
VERTEX
  8
2
  5
2CF
  6
HIDDEN
 62
4
 10
20.5477
 20
-8.3233
 30
0.0
  0
VERTEX
  8
2
  5
2D0
  6
HIDDEN
 62
4
 10
20.4648
 20
-8.3202
 30
0.0
  0
VERTEX
  8
2
  5
2D1
  6
HIDDEN
 62
4
 10
20.4206
 20
-8.3904
 30
0.0
  0
VERTEX
  8
2
  5
2D2
  6
HIDDEN
 62
4
 10
20.4594
 20
-8.4638
 30
0.0
  0
VERTEX
  8
2
  5
2D3
  6
HIDDEN
 62
4
 10
20.5422
 20
-8.4669
 30
0.0
  0
SEQEND
  8
2
  5
2D4
  0
CIRCLE
  8
2
  5
2D6
  6
HIDDEN
 62
4
 10
20.503539
 20
-8.393582
 30
0.0
 40
0.127354
  0
POLYLINE
  8
2
  5
2D8
  6
HIDDEN
 62
4
 10
0.0
 20
0.0
 30
0.0
 66
1
 70
0
  0
VERTEX
  8
2
  5
2D9
  6
HIDDEN
 62
4
 10
20.427
 20
-7.4488
 30
0.0
  0
VERTEX
  8
2
  5
2DA
  6
HIDDEN
 62
4
 10
20.4972
 20
-7.493
 30
0.0
  0
VERTEX
  8
2
  5
2DB
  6
HIDDEN
 62
4
 10
20.5706
 20
-7.4542
 30
0.0
  0
VERTEX
  8
2
  5
2DC
  6
HIDDEN
 62
4
 10
20.5738
 20
-7.3714
 30
0.0
  0
VERTEX
  8
2
  5
2DD
  6
HIDDEN
 62
4
 10
20.5036
 20
-7.3271
 30
0.0
  0
VERTEX
  8
2
  5
2DE
  6
HIDDEN
 62
4
 10
20.4301
 20
-7.3659
 30
0.0
  0
VERTEX
  8
2
  5
2DF
  6
HIDDEN
 62
4
 10
20.427
 20
-7.4488
 30
0.0
  0
SEQEND
  8
2
  5
2E0
  0
CIRCLE
  8
2
  5
2E2
  6
HIDDEN
 62
4
 10
20.500399
 20
-7.41004
 30
0.0
 40
0.127354
  0
POLYLINE
  8
2
  5
2E4
  6
HIDDEN
 62
4
 10
0.0
 20
0.0
 30
0.0
 66
1
 70
0
  0
VERTEX
  8
2
  5
2E5
  6
HIDDEN
 62
4
 10
21.4453
 20
-7.3335
 30
0.0
  0
VERTEX
  8
2
  5
2E6
  6
HIDDEN
 62
4
 10
21.401
 20
-7.4037
 30
0.0
  0
VERTEX
  8
2
  5
2E7
  6
HIDDEN
 62
4
 10
21.4397
 20
-7.4771
 30
0.0
  0
VERTEX
  8
2
  5
2E8
  6
HIDDEN
 62
4
 10
21.5226
 20
-7.4804
 30
0.0
  0
VERTEX
  8
2
  5
2E9
  6
HIDDEN
 62
4
 10
21.5668
 20
-7.4101
 30
0.0
  0
VERTEX
  8
2
  5
2EA
  6
HIDDEN
 62
4
 10
21.5281
 20
-7.3367
 30
0.0
  0
VERTEX
  8
2
  5
2EB
  6
HIDDEN
 62
4
 10
21.4453
 20
-7.3335
 30
0.0
  0
SEQEND
  8
2
  5
2EC
  0
CIRCLE
  8
2
  5
2EE
  6
HIDDEN
 62
4
 10
21.483941
 20
-7.4069
 30
0.0
 40
0.127354
  0
ARC
  8
2
  5
2F0
  6
HIDDEN
 62
4
 10
21.483941
 20
-7.4069
 30
0.0
 40
0.179397
 50
343.7036722222
 51
3.2695111111
  0
ARC
  8
2
  5
2F2
  6
HIDDEN
 62
4
 10
21.487081
 20
-8.390442
 30
0.0
 40
0.179397
 50
164.7458944444
 51
184.2746555556
  0
ARC
  8
2
  5
2F4
  6
HIDDEN
 62
4
 10
20.500399
 20
-7.41004
 30
0.0
 40
0.179397
 50
175.7253444444
 51
195.2541055556
  0
ARC
  8
2
  5
2F6
  6
HIDDEN
 62
4
 10
20.503539
 20
-8.393582
 30
0.0
 40
0.179397
 50
356.7304888889
 51
16.2963277778
  0
LINE
  8
2
  5
2F8
  6
HIDDEN
 62
4
 10
21.6561
 20
-7.4571
 30
0.0
 11
21.8489
 21
-7.4571
 31
0.0
  0
LINE
  8
2
  5
2FA
  6
HIDDEN
 62
4
 10
21.663
 20
-7.3966
 30
0.0
 11
21.8147
 21
-7.3966
 31
0.0
  0
LINE
  8
2
  5
2FC
  6
HIDDEN
 62
4
 10
21.5974
 20
-7.268
 30
0.0
 11
21.7202
 21
-7.268
 31
0.0
  0
LINE
  8
2
  5
2FE
  6
HIDDEN
 62
4
 10
20.6099
 20
-7.268
 30
0.0
 11
21.3705
 21
-7.268
 31
0.0
  0
LINE
  8
2
  5
300
  6
HIDDEN
 62
4
 10
20.6793
 20
-7.3966
 30
0.0
 11
21.3048
 21
-7.3966
 31
0.0
  0
LINE
  8
2
  5
302
  6
HIDDEN
 62
4
 10
20.6735
 20
-7.4571
 30
0.0
 11
21.3117
 21
-7.4571
 31
0.0
  0
LINE
  8
2
  5
304
  6
HIDDEN
 62
4
 10
20.6757
 20
-8.3432
 30
0.0
 11
21.3141
 21
-8.3432
 31
0.0
  0
LINE
  8
2
  5
306
  6
HIDDEN
 62
4
 10
20.6826
 20
-8.4037
 30
0.0
 11
21.3081
 21
-8.4037
 31
0.0
  0
LINE
  8
2
  5
308
  6
HIDDEN
 62
4
 10
20.617
 20
-8.5326
 30
0.0
 11
21.3776
 21
-8.5326
 31
0.0
  0
LINE
  8
2
  5
30A
  6
HIDDEN
 62
4
 10
21.5966
 20
-8.5326
 30
0.0
 11
21.7202
 21
-8.5326
 31
0.0
  0
LINE
  8
2
  5
30C
  6
HIDDEN
 62
4
 10
21.666
 20
-8.4037
 30
0.0
 11
21.8147
 21
-8.4037
 31
0.0
  0
LINE
  8
2
  5
30E
  6
HIDDEN
 62
4
 10
21.6601
 20
-8.3432
 30
0.0
 11
21.8489
 21
-8.3432
 31
0.0
  0
ARC
  8
2
  5
310
  6
HIDDEN
 62
4
 10
20.500399
 20
-7.41004
 30
0.0
 40
0.179397
 50
344.7458944444
 51
4.2746555556
  0
ARC
  8
2
  5
312
  6
HIDDEN
 62
4
 10
20.500399
 20
-7.41004
 30
0.0
 40
0.179397
 50
52.390125
 51
127.6098777778
  0
ARC
  8
2
  5
314
  6
HIDDEN
 62
4
 10
21.483941
 20
-7.4069
 30
0.0
 40
0.179397
 50
50.7759944444
 51
129.2240055556
  0
ARC
  8
2
  5
316
  6
HIDDEN
 62
4
 10
21.483941
 20
-7.4069
 30
0.0
 40
0.179397
 50
176.7304888889
 51
196.2963277778
  0
ARC
  8
2
  5
318
  6
HIDDEN
 62
4
 10
20.503539
 20
-8.393582
 30
0.0
 40
0.179397
 50
163.7036722222
 51
183.2695111111
  0
ARC
  8
2
  5
31A
  6
HIDDEN
 62
4
 10
20.503539
 20
-8.393582
 30
0.0
 40
0.179397
 50
230.7759944444
 51
309.2240055556
  0
ARC
  8
2
  5
31C
  6
HIDDEN
 62
4
 10
21.487081
 20
-8.390442
 30
0.0
 40
0.179397
 50
232.390125
 51
307.6098777778
  0
ARC
  8
2
  5
31E
  6
HIDDEN
 62
4
 10
21.487081
 20
-8.390442
 30
0.0
 40
0.179397
 50
355.7253444444
 51
15.2541055556
  0
LINE
  8
2
  5
320
  6
HIDDEN
 62
4
 10
18.1438
 20
-7.4045
 30
0.0
 11
17.6925
 21
-7.4045
 31
0.0
  0
LINE
  8
2
  5
322
  6
HIDDEN
 62
4
 10
17.6424
 20
-7.4045
 30
0.0
 11
17.6424
 21
-7.737
 31
0.0
  0
LINE
  8
2
  5
324
  6
HIDDEN
 62
4
 10
17.6424
 20
-8.3877
 30
0.0
 11
18.1438
 21
-8.3877
 31
0.0
  0
ARC
  8
2
  5
326
  6
HIDDEN
 62
4
 10
-19.81122
 20
-3.638898
 30
0.0
 40
38.06155
 50
354.3220555556
 51
355.3140361111
  0
ARC
  8
2
  5
328
  6
HIDDEN
 62
4
 10
55.65353
 20
-3.108123
 30
0.0
 40
38.123744
 50
185.6635888889
 51
186.4708527778
  0
ARC
  8
2
  5
32A
  6
HIDDEN
 62
4
 10
55.65353
 20
-12.673401
 30
0.0
 40
38.123744
 50
173.5453444444
 51
174.3644555556
  0
ARC
  8
2
  5
32C
  6
HIDDEN
 62
4
 10
-19.81122
 20
-12.142626
 30
0.0
 40
38.06155
 50
4.6563472222
 51
5.6617444444
  0
LINE
  8
2
  5
32E
  6
HIDDEN
 62
4
 10
17.6424
 20
-8.0537
 30
0.0
 11
17.6424
 21
-8.3877
 31
0.0
  0
LINE
  8
1
  5
330
  6
CONTINUOUS
 62
3
 10
18.1438
 20
-9.0579
 30
0.0
 11
18.1438
 21
-6.7428
 31
0.0
  0
LINE
  8
2
  5
332
  6
CONTINUOUS
 62
3
 10
23.0592
 20
-5.9164
 30
0.0
 11
23.0592
 21
-9.8842
 31
0.0
  0
LINE
  8
2
  5
334
  6
HIDDEN
 62
4
 10
23.4342
 20
-6.0073
 30
0.0
 11
23.4342
 21
-9.7934
 31
0.0
  0
ARC
  8
2
  5
336
  6
HIDDEN
 62
4
 10
26.651771
 20
-42.754118
 30
0.0
 40
36.887396
 50
90.1358472222
 51
95.5890694444
  0
ARC
  8
2
  5
338
  6
HIDDEN
 62
4
 10
26.651771
 20
26.953415
 30
0.0
 40
36.887396
 50
264.4109305556
 51
269.0027583333
  0
ARC
  8
2
  5
33A
  6
HIDDEN
 62
4
 10
26.651771
 20
26.953415
 30
0.0
 40
36.887396
 50
269.2772055556
 51
270.197725
  0
ARC
  8
2
  5
33C
  6
CONTINUOUS
 62
3
 10
26.651771
 20
26.953415
 30
0.0
 40
36.887396
 50
269.0028138889
 51
269.2772055556
  0
ARC
  8
2
  5
33E
  6
CONTINUOUS
 62
3
 10
26.651771
 20
-42.754118
 30
0.0
 40
36.887396
 50
89.9820194444
 51
90.1358277778
  0
LINE
  8
1
  5
340
  6
CONTINUOUS
 62
3
 10
18.5011
 20
-28.3072
 30
0.0
 11
18.5011
 21
-25.8072
 31
0.0
  0
LINE
  8
1
  5
342
  6
CONTINUOUS
 62
3
 10
15.8968
 20
-26.9301
 30
0.0
 11
15.8968
 21
-27.1842
 31
0.0
  0
LINE
  8
1
  5
344
  6
CONTINUOUS
 62
3
 10
18.3742
 20
-28.2719
 30
0.0
 11
18.3742
 21
-25.8426
 31
0.0
  0
ARC
  8
1
  5
346
  6
CONTINUOUS
 62
3
 10
20.008227
 20
-21.184496
 30
0.0
 40
7.27329
 50
235.5779916667
 51
257.0165277778
  0
ARC
  8
1
  5
348
  6
CONTINUOUS
 62
3
 10
20.008227
 20
-32.92991
 30
0.0
 40
7.27329
 50
102.9834722222
 51
124.4220083333
  0
INSERT
  8
2
  5
34A
  6
CONTINUOUS
 62
3
  2
PROP
 10
15.8968
 20
-27.0572
 30
0.0
 41
1.000033
 42
1.000033
 43
1.0
 70
1
 71
1
  0
LINE
  8
2
  5
34C
  6
HIDDEN
 62
4
 10
23.0592
 20
-28.3936
 30
0.0
 11
22.6483
 21
-28.3936
 31
0.0
  0
LINE
  8
2
  5
34E
  6
HIDDEN
 62
4
 10
22.6483
 20
-25.7054
 30
0.0
 11
23.0592
 21
-25.7054
 31
0.0
  0
LINE
  8
2
  5
350
  6
HIDDEN
 62
4
 10
22.4915
 20
-25.8846
 30
0.0
 11
22.6483
 21
-25.8846
 31
0.0
  0
LINE
  8
2
  5
352
  6
HIDDEN
 62
4
 10
22.6483
 20
-26.131
 30
0.0
 11
22.4915
 21
-26.131
 31
0.0
  0
LINE
  8
2
  5
354
  6
HIDDEN
 62
4
 10
22.4915
 20
-26.131
 30
0.0
 11
22.4915
 21
-25.8846
 31
0.0
  0
LINE
  8
2
  5
356
  6
HIDDEN
 62
4
 10
22.6483
 20
-28.3936
 30
0.0
 11
22.6483
 21
-25.7054
 31
0.0
  0
LINE
  8
2
  5
358
  6
HIDDEN
 62
4
 10
22.4915
 20
-28.2592
 30
0.0
 11
22.4915
 21
-28.0311
 31
0.0
  0
LINE
  8
2
  5
35A
  6
HIDDEN
 62
4
 10
22.6483
 20
-28.2592
 30
0.0
 11
22.4915
 21
-28.2592
 31
0.0
  0
LINE
  8
2
  5
35C
  6
HIDDEN
 62
4
 10
20.3988
 20
-25.8148
 30
0.0
 11
22.6483
 21
-25.7054
 31
0.0
  0
LINE
  8
2
  5
35E
  6
HIDDEN
 62
4
 10
20.3995
 20
-28.2944
 30
0.0
 11
22.6483
 21
-28.3936
 31
0.0
  0
LINE
  8
2
  5
360
  6
HIDDEN
 62
4
 10
20.256
 20
-27.8403
 30
0.0
 11
20.3155
 21
-27.8403
 31
0.0
  0
LINE
  8
2
  5
362
  6
HIDDEN
 62
4
 10
20.256
 20
-26.2739
 30
0.0
 11
20.3155
 21
-26.2739
 31
0.0
  0
CIRCLE
  8
2
  5
364
  6
HIDDEN
 62
4
 10
20.99374
 20
-27.057092
 30
0.0
 40
0.963141
  0
CIRCLE
  8
2
  5
366
  6
HIDDEN
 62
4
 10
20.99374
 20
-27.057092
 30
0.0
 40
0.068746
  0
CIRCLE
  8
2
  5
368
  6
HIDDEN
 62
4
 10
19.235005
 20
-27.074648
 30
0.0
 40
0.340031
  0
LINE
  8
2
  5
36A
  6
HIDDEN
 62
4
 10
19.7705
 20
-26.3831
 30
0.0
 11
19.7705
 21
-27.6388
 31
0.0
  0
LINE
  8
2
  5
36C
  6
HIDDEN
 62
4
 10
18.8638
 20
-26.3831
 30
0.0
 11
18.8638
 21
-27.6388
 31
0.0
  0
LINE
  8
2
  5
36E
  6
HIDDEN
 62
4
 10
18.8638
 20
-27.6388
 30
0.0
 11
19.7705
 21
-27.6388
 31
0.0
  0
LINE
  8
2
  5
370
  6
HIDDEN
 62
4
 10
18.8638
 20
-26.3831
 30
0.0
 11
19.7705
 21
-26.3831
 31
0.0
  0
ARC
  8
2
  5
372
  6
HIDDEN
 62
4
 10
19.318406
 20
-27.057092
 30
0.0
 40
0.272312
 50
97.6317138889
 51
286.1420055556
  0
CIRCLE
  8
2
  5
374
  6
HIDDEN
 62
4
 10
19.235005
 20
-27.074648
 30
0.0
 40
0.291311
  0
CIRCLE
  8
2
  5
376
  6
HIDDEN
 62
4
 10
19.589721
 20
-27.438609
 30
0.0
 40
0.072792
  0
LINE
  8
2
  5
378
  6
HIDDEN
 62
4
 10
19.1326
 20
-26.2685
 30
0.0
 11
19.1326
 21
-26.3831
 31
0.0
  0
LINE
  8
2
  5
37A
  6
HIDDEN
 62
4
 10
19.2093
 20
-25.3295
 30
0.0
 11
19.2093
 21
-26.0406
 31
0.0
  0
LINE
  8
2
  5
37C
  6
HIDDEN
 62
4
 10
19.5499
 20
-25.3295
 30
0.0
 11
19.5499
 21
-26.0406
 31
0.0
  0
LINE
  8
2
  5
37E
  6
HIDDEN
 62
4
 10
19.6266
 20
-26.2685
 30
0.0
 11
19.6266
 21
-26.3831
 31
0.0
  0
LINE
  8
2
  5
380
  6
HIDDEN
 62
4
 10
19.1326
 20
-26.2685
 30
0.0
 11
19.6266
 21
-26.2685
 31
0.0
  0
LINE
  8
2
  5
382
  6
HIDDEN
 62
4
 10
19.2365
 20
-25.2949
 30
0.0
 11
19.5227
 21
-25.2949
 31
0.0
  0
LINE
  8
2
  5
384
  6
HIDDEN
 62
4
 10
19.2093
 20
-25.3295
 30
0.0
 11
19.5499
 21
-25.3295
 31
0.0
  0
LINE
  8
2
  5
386
  6
HIDDEN
 62
4
 10
19.2093
 20
-25.3295
 30
0.0
 11
19.2365
 21
-25.2949
 31
0.0
  0
LINE
  8
2
  5
388
  6
HIDDEN
 62
4
 10
19.5499
 20
-25.3295
 30
0.0
 11
19.5227
 21
-25.2949
 31
0.0
  0
LINE
  8
2
  5
38A
  6
HIDDEN
 62
4
 10
19.2093
 20
-25.734
 30
0.0
 11
19.5499
 21
-25.734
 31
0.0
  0
LINE
  8
2
  5
38C
  6
HIDDEN
 62
4
 10
19.2387
 20
-25.734
 30
0.0
 11
19.2387
 21
-25.3295
 31
0.0
  0
LINE
  8
2
  5
38E
  6
HIDDEN
 62
4
 10
19.2699
 20
-25.734
 30
0.0
 11
19.2699
 21
-25.3295
 31
0.0
  0
LINE
  8
2
  5
390
  6
HIDDEN
 62
4
 10
19.3012
 20
-25.734
 30
0.0
 11
19.3012
 21
-25.3295
 31
0.0
  0
LINE
  8
2
  5
392
  6
HIDDEN
 62
4
 10
19.3325
 20
-25.734
 30
0.0
 11
19.3325
 21
-25.3295
 31
0.0
  0
LINE
  8
2
  5
394
  6
HIDDEN
 62
4
 10
19.3635
 20
-25.734
 30
0.0
 11
19.3635
 21
-25.3295
 31
0.0
  0
LINE
  8
2
  5
396
  6
HIDDEN
 62
4
 10
19.395
 20
-25.734
 30
0.0
 11
19.395
 21
-25.3295
 31
0.0
  0
LINE
  8
2
  5
398
  6
HIDDEN
 62
4
 10
19.4262
 20
-25.734
 30
0.0
 11
19.4262
 21
-25.3295
 31
0.0
  0
LINE
  8
2
  5
39A
  6
HIDDEN
 62
4
 10
19.4575
 20
-25.734
 30
0.0
 11
19.4575
 21
-25.3295
 31
0.0
  0
LINE
  8
2
  5
39C
  6
HIDDEN
 62
4
 10
19.4886
 20
-25.734
 30
0.0
 11
19.4886
 21
-25.3295
 31
0.0
  0
LINE
  8
2
  5
39E
  6
HIDDEN
 62
4
 10
19.52
 20
-25.734
 30
0.0
 11
19.52
 21
-25.3295
 31
0.0
  0
LINE
  8
2
  5
3A0
  6
HIDDEN
 62
4
 10
19.2093
 20
-26.0406
 30
0.0
 11
19.5499
 21
-26.0406
 31
0.0
  0
LINE
  8
2
  5
3A2
  6
HIDDEN
 62
4
 10
19.2093
 20
-26.0837
 30
0.0
 11
19.5499
 21
-26.0837
 31
0.0
  0
LINE
  8
2
  5
3A4
  6
HIDDEN
 62
4
 10
19.5499
 20
-26.0837
 30
0.0
 11
19.5499
 21
-26.2685
 31
0.0
  0
LINE
  8
2
  5
3A6
  6
HIDDEN
 62
4
 10
19.2093
 20
-26.0837
 30
0.0
 11
19.2093
 21
-26.2685
 31
0.0
  0
LINE
  8
2
  5
3A8
  6
HIDDEN
 62
4
 10
19.2572
 20
-26.0837
 30
0.0
 11
19.2572
 21
-26.0406
 31
0.0
  0
LINE
  8
2
  5
3AA
  6
HIDDEN
 62
4
 10
19.5021
 20
-26.0837
 30
0.0
 11
19.5021
 21
-26.0406
 31
0.0
  0
LINE
  8
2
  5
3AC
  6
HIDDEN
 62
4
 10
18.59
 20
-26.5627
 30
0.0
 11
18.59
 21
-27.5515
 31
0.0
  0
LINE
  8
2
  5
3AE
  6
HIDDEN
 62
4
 10
18.6927
 20
-27.3716
 30
0.0
 11
18.6927
 21
-26.7427
 31
0.0
  0
LINE
  8
2
  5
3B0
  6
HIDDEN
 62
4
 10
17.5469
 20
-27.2105
 30
0.0
 11
17.5469
 21
-26.894
 31
0.0
  0
LINE
  8
2
  5
3B2
  6
HIDDEN
 62
4
 10
17.6719
 20
-27.2105
 30
0.0
 11
17.6719
 21
-26.894
 31
0.0
  0
LINE
  8
2
  5
3B4
  6
HIDDEN
 62
4
 10
17.7969
 20
-27.2105
 30
0.0
 11
17.7969
 21
-26.894
 31
0.0
  0
LINE
  8
2
  5
3B6
  6
HIDDEN
 62
4
 10
17.922
 20
-27.2105
 30
0.0
 11
17.922
 21
-26.894
 31
0.0
  0
LINE
  8
2
  5
3B8
  6
HIDDEN
 62
4
 10
18.0468
 20
-27.2105
 30
0.0
 11
18.0468
 21
-26.894
 31
0.0
  0
LINE
  8
2
  5
3BA
  6
HIDDEN
 62
4
 10
18.1718
 20
-27.2105
 30
0.0
 11
18.1718
 21
-26.894
 31
0.0
  0
LINE
  8
2
  5
3BC
  6
HIDDEN
 62
4
 10
18.2969
 20
-27.2105
 30
0.0
 11
18.2969
 21
-26.894
 31
0.0
  0
LINE
  8
2
  5
3BE
  6
HIDDEN
 62
4
 10
17.4186
 20
-26.894
 30
0.0
 11
18.3742
 21
-26.894
 31
0.0
  0
LINE
  8
2
  5
3C0
  6
HIDDEN
 62
4
 10
18.3742
 20
-26.5627
 30
0.0
 11
18.59
 21
-26.5627
 31
0.0
  0
LINE
  8
2
  5
3C2
  6
HIDDEN
 62
4
 10
18.59
 20
-26.5627
 30
0.0
 11
18.6927
 21
-26.7427
 31
0.0
  0
LINE
  8
2
  5
3C4
  6
HIDDEN
 62
4
 10
18.3742
 20
-27.5515
 30
0.0
 11
18.59
 21
-27.5515
 31
0.0
  0
LINE
  8
2
  5
3C6
  6
HIDDEN
 62
4
 10
18.59
 20
-27.5515
 30
0.0
 11
18.6927
 21
-27.3716
 31
0.0
  0
LINE
  8
2
  5
3C8
  6
HIDDEN
 62
4
 10
18.3742
 20
-27.2105
 30
0.0
 11
17.4186
 21
-27.2105
 31
0.0
  0
LINE
  8
2
  5
3CA
  6
HIDDEN
 62
4
 10
17.4186
 20
-27.2105
 30
0.0
 11
17.4186
 21
-26.894
 31
0.0
  0
LINE
  8
2
  5
3CC
  6
HIDDEN
 62
4
 10
20.256
 20
-25.9647
 30
0.0
 11
20.256
 21
-26.2739
 31
0.0
  0
LINE
  8
2
  5
3CE
  6
HIDDEN
 62
4
 10
20.3167
 20
-25.9267
 30
0.0
 11
20.3167
 21
-26.2571
 31
0.0
  0
LINE
  8
2
  5
3D0
  6
HIDDEN
 62
4
 10
21.8018
 20
-25.9267
 30
0.0
 11
21.8018
 21
-26.2739
 31
0.0
  0
LINE
  8
2
  5
3D2
  6
HIDDEN
 62
4
 10
20.3167
 20
-27.857
 30
0.0
 11
20.3167
 21
-27.9531
 31
0.0
  0
LINE
  8
2
  5
3D4
  6
HIDDEN
 62
4
 10
21.8018
 20
-27.8403
 30
0.0
 11
21.8018
 21
-27.963
 31
0.0
  0
LINE
  8
2
  5
3D6
  6
HIDDEN
 62
4
 10
20.256
 20
-27.8403
 30
0.0
 11
20.256
 21
-27.9531
 31
0.0
  0
LINE
  8
2
  5
3D8
  6
HIDDEN
 62
4
 10
21.8018
 20
-26.2739
 30
0.0
 11
22.6483
 21
-26.2739
 31
0.0
  0
LINE
  8
2
  5
3DA
  6
HIDDEN
 62
4
 10
21.8018
 20
-27.8403
 30
0.0
 11
22.6483
 21
-27.8403
 31
0.0
  0
LINE
  8
2
  5
3DC
  6
HIDDEN
 62
4
 10
20.3167
 20
-28.1875
 30
0.0
 11
21.8018
 21
-28.1875
 31
0.0
  0
ARC
  8
2
  5
3DE
  6
HIDDEN
 62
4
 10
21.580731
 20
-27.992143
 30
0.0
 40
0.127354
 50
197.7684666667
 51
342.2315361111
  0
ARC
  8
2
  5
3E0
  6
HIDDEN
 62
4
 10
20.532704
 20
-27.992143
 30
0.0
 40
0.127354
 50
13.2012916667
 51
15.1096166667
  0
POLYLINE
  8
2
  5
3E2
  6
HIDDEN
 62
4
 10
0.0
 20
0.0
 30
0.0
 66
1
 70
0
  0
VERTEX
  8
2
  5
3E3
  6
HIDDEN
 62
4
 10
21.6526
 20
-26.0806
 30
0.0
  0
VERTEX
  8
2
  5
3E4
  6
HIDDEN
 62
4
 10
21.5807
 20
-26.039
 30
0.0
  0
VERTEX
  8
2
  5
3E5
  6
HIDDEN
 62
4
 10
21.5088
 20
-26.0806
 30
0.0
  0
VERTEX
  8
2
  5
3E6
  6
HIDDEN
 62
4
 10
21.5088
 20
-26.1636
 30
0.0
  0
VERTEX
  8
2
  5
3E7
  6
HIDDEN
 62
4
 10
21.5807
 20
-26.205
 30
0.0
  0
VERTEX
  8
2
  5
3E8
  6
HIDDEN
 62
4
 10
21.6526
 20
-26.1636
 30
0.0
  0
VERTEX
  8
2
  5
3E9
  6
HIDDEN
 62
4
 10
21.6526
 20
-26.0806
 30
0.0
  0
SEQEND
  8
2
  5
3EA
  0
CIRCLE
  8
2
  5
3EC
  6
HIDDEN
 62
4
 10
21.580731
 20
-26.122042
 30
0.0
 40
0.127354
  0
ARC
  8
2
  5
3EE
  6
HIDDEN
 62
4
 10
20.532704
 20
-26.122042
 30
0.0
 40
0.127354
 50
344.8903833333
 51
247.6016888889
  0
LINE
  8
2
  5
3F0
  6
HIDDEN
 62
4
 10
20.3167
 20
-25.9267
 30
0.0
 11
21.8018
 21
-25.9267
 31
0.0
  0
POLYLINE
  8
2
  5
3F2
  6
HIDDEN
 62
4
 10
0.0
 20
0.0
 30
0.0
 66
1
 70
0
  0
VERTEX
  8
2
  5
3F3
  6
HIDDEN
 62
4
 10
20.6044
 20
-26.0806
 30
0.0
  0
VERTEX
  8
2
  5
3F4
  6
HIDDEN
 62
4
 10
20.5326
 20
-26.039
 30
0.0
  0
VERTEX
  8
2
  5
3F5
  6
HIDDEN
 62
4
 10
20.4608
 20
-26.0806
 30
0.0
  0
VERTEX
  8
2
  5
3F6
  6
HIDDEN
 62
4
 10
20.4608
 20
-26.1636
 30
0.0
  0
VERTEX
  8
2
  5
3F7
  6
HIDDEN
 62
4
 10
20.5326
 20
-26.205
 30
0.0
  0
VERTEX
  8
2
  5
3F8
  6
HIDDEN
 62
4
 10
20.6044
 20
-26.1636
 30
0.0
  0
VERTEX
  8
2
  5
3F9
  6
HIDDEN
 62
4
 10
20.6044
 20
-26.0806
 30
0.0
  0
SEQEND
  8
2
  5
3FA
  0
ARC
  8
2
  5
3FC
  6
HIDDEN
 62
4
 10
20.406074
 20
-25.964633
 30
0.0
 40
0.150005
 50
92.7862444444
 51
180.0
  0
ARC
  8
2
  5
3FE
  6
HIDDEN
 62
4
 10
20.406074
 20
-28.144605
 30
0.0
 40
0.150005
 50
180.0
 51
267.4749111111
  0
LINE
  8
2
  5
400
  6
HIDDEN
 62
4
 10
22.0395
 20
-26.2739
 30
0.0
 11
22.0395
 21
-27.8403
 31
0.0
  0
LINE
  8
2
  5
402
  6
HIDDEN
 62
4
 10
22.289
 20
-27.6405
 30
0.0
 11
22.2044
 21
-27.6405
 31
0.0
  0
LINE
  8
2
  5
404
  6
HIDDEN
 62
4
 10
22.289
 20
-27.7738
 30
0.0
 11
22.289
 21
-27.6405
 31
0.0
  0
LINE
  8
2
  5
406
  6
HIDDEN
 62
4
 10
22.1858
 20
-27.7738
 30
0.0
 11
22.289
 21
-27.7738
 31
0.0
  0
LINE
  8
2
  5
408
  6
HIDDEN
 62
4
 10
22.1858
 20
-26.3403
 30
0.0
 11
22.289
 21
-26.3403
 31
0.0
  0
LINE
  8
2
  5
40A
  6
HIDDEN
 62
4
 10
22.289
 20
-26.3403
 30
0.0
 11
22.289
 21
-26.4737
 31
0.0
  0
LINE
  8
2
  5
40C
  6
HIDDEN
 62
4
 10
22.289
 20
-26.4737
 30
0.0
 11
22.2108
 21
-26.4737
 31
0.0
  0
ARC
  8
2
  5
40E
  6
HIDDEN
 62
4
 10
21.919709
 20
-27.841489
 30
0.0
 40
0.117969
 50
113.7661194444
 51
179.4295
  0
ARC
  8
2
  5
410
  6
HIDDEN
 62
4
 10
21.919709
 20
-26.272696
 30
0.0
 40
0.117969
 50
180.5705027778
 51
246.2338833333
  0
ARC
  8
2
  5
412
  6
HIDDEN
 62
4
 10
17.857557
 20
-34.811817
 30
0.0
 40
7.486925
 50
82.2767888889
 51
83.5949194444
  0
ARC
  8
2
  5
414
  6
HIDDEN
 62
4
 10
17.857557
 20
-19.302368
 30
0.0
 40
7.486925
 50
276.4050805556
 51
277.7232111111
  0
LINE
  8
2
  5
416
  6
HIDDEN
 62
4
 10
19.14
 20
-27.7088
 30
0.0
 11
19.5893
 21
-27.7088
 31
0.0
  0
LINE
  8
2
  5
418
  6
HIDDEN
 62
4
 10
19.5893
 20
-27.7088
 30
0.0
 11
19.5893
 21
-28.0774
 31
0.0
  0
LINE
  8
2
  5
41A
  6
HIDDEN
 62
4
 10
19.5893
 20
-28.0774
 30
0.0
 11
19.14
 21
-28.0774
 31
0.0
  0
LINE
  8
2
  5
41C
  6
HIDDEN
 62
4
 10
19.14
 20
-28.0774
 30
0.0
 11
19.14
 21
-27.7088
 31
0.0
  0
LINE
  8
2
  5
41E
  6
HIDDEN
 62
4
 10
19.14
 20
-27.7088
 30
0.0
 11
19.0516
 21
-27.7088
 31
0.0
  0
LINE
  8
2
  5
420
  6
HIDDEN
 62
4
 10
19.0516
 20
-27.7088
 30
0.0
 11
19.0516
 21
-27.6388
 31
0.0
  0
LINE
  8
2
  5
422
  6
HIDDEN
 62
4
 10
19.5893
 20
-27.7088
 30
0.0
 11
19.6776
 21
-27.7088
 31
0.0
  0
LINE
  8
2
  5
424
  6
HIDDEN
 62
4
 10
19.6776
 20
-27.7088
 30
0.0
 11
19.6776
 21
-27.6388
 31
0.0
  0
LINE
  8
2
  5
426
  6
HIDDEN
 62
4
 10
19.919
 20
-26.4493
 30
0.0
 11
19.919
 21
-27.5725
 31
0.0
  0
LINE
  8
2
  5
428
  6
HIDDEN
 62
4
 10
19.7705
 20
-27.6388
 30
0.0
 11
19.919
 21
-27.5725
 31
0.0
  0
LINE
  8
2
  5
42A
  6
HIDDEN
 62
4
 10
19.7705
 20
-26.3831
 30
0.0
 11
19.919
 21
-26.4493
 31
0.0
  0
LINE
  8
2
  5
42C
  6
HIDDEN
 62
4
 10
20.3551
 20
-27.963
 30
0.0
 11
20.3551
 21
-28.0311
 31
0.0
  0
LINE
  8
2
  5
42E
  6
HIDDEN
 62
4
 10
20.3714
 20
-27.963
 30
0.0
 11
20.3714
 21
-28.0311
 31
0.0
  0
LINE
  8
2
  5
430
  6
HIDDEN
 62
4
 10
20.3874
 20
-27.963
 30
0.0
 11
20.3874
 21
-28.0311
 31
0.0
  0
LINE
  8
2
  5
432
  6
HIDDEN
 62
4
 10
20.4028
 20
-27.963
 30
0.0
 11
20.4028
 21
-28.0311
 31
0.0
  0
LINE
  8
2
  5
434
  6
HIDDEN
 62
4
 10
20.4184
 20
-27.963
 30
0.0
 11
20.4184
 21
-28.0311
 31
0.0
  0
LINE
  8
2
  5
436
  6
HIDDEN
 62
4
 10
20.4331
 20
-27.963
 30
0.0
 11
20.4331
 21
-28.0311
 31
0.0
  0
LINE
  8
2
  5
438
  6
HIDDEN
 62
4
 10
20.4478
 20
-27.963
 30
0.0
 11
20.4478
 21
-28.0311
 31
0.0
  0
LINE
  8
2
  5
43A
  6
HIDDEN
 62
4
 10
19.6186
 20
-27.9666
 30
0.0
 11
19.6186
 21
-27.9329
 31
0.0
  0
LINE
  8
2
  5
43C
  6
HIDDEN
 62
4
 10
19.6186
 20
-27.9329
 30
0.0
 11
20.1455
 21
-27.9329
 31
0.0
  0
LINE
  8
2
  5
43E
  6
HIDDEN
 62
4
 10
20.1455
 20
-27.9329
 30
0.0
 11
20.1455
 21
-27.9531
 31
0.0
  0
LINE
  8
2
  5
440
  6
HIDDEN
 62
4
 10
20.1455
 20
-28.0694
 30
0.0
 11
19.6186
 21
-28.0694
 31
0.0
  0
LINE
  8
2
  5
442
  6
HIDDEN
 62
4
 10
19.6186
 20
-28.0694
 30
0.0
 11
19.6186
 21
-28.0339
 31
0.0
  0
LINE
  8
2
  5
444
  6
HIDDEN
 62
4
 10
20.1001
 20
-27.9666
 30
0.0
 11
20.1001
 21
-28.0339
 31
0.0
  0
LINE
  8
2
  5
446
  6
HIDDEN
 62
4
 10
20.1455
 20
-27.9531
 30
0.0
 11
20.341
 21
-27.9531
 31
0.0
  0
LINE
  8
2
  5
448
  6
HIDDEN
 62
4
 10
20.341
 20
-27.9531
 30
0.0
 11
20.341
 21
-28.0488
 31
0.0
  0
LINE
  8
2
  5
44A
  6
HIDDEN
 62
4
 10
20.341
 20
-28.0488
 30
0.0
 11
20.1455
 21
-28.0488
 31
0.0
  0
LINE
  8
2
  5
44C
  6
HIDDEN
 62
4
 10
20.1455
 20
-28.0488
 30
0.0
 11
20.1455
 21
-28.0694
 31
0.0
  0
LINE
  8
2
  5
44E
  6
HIDDEN
 62
4
 10
23.0592
 20
-27.963
 30
0.0
 11
21.3205
 21
-27.963
 31
0.0
  0
LINE
  8
2
  5
450
  6
HIDDEN
 62
4
 10
23.0592
 20
-28.0311
 30
0.0
 11
20.341
 21
-28.0311
 31
0.0
  0
LINE
  8
2
  5
452
  6
HIDDEN
 62
4
 10
20.1001
 20
-27.9666
 30
0.0
 11
19.5893
 21
-27.9666
 31
0.0
  0
LINE
  8
2
  5
454
  6
HIDDEN
 62
4
 10
20.1001
 20
-28.0339
 30
0.0
 11
19.5893
 21
-28.0339
 31
0.0
  0
LINE
  8
2
  5
456
  6
HIDDEN
 62
4
 10
20.6058
 20
-28.0311
 30
0.0
 11
20.6058
 21
-28.0336
 31
0.0
  0
POLYLINE
  8
2
  5
458
  6
HIDDEN
 62
4
 10
0.0
 20
0.0
 30
0.0
 66
1
 70
0
  0
VERTEX
  8
2
  5
459
  6
HIDDEN
 62
4
 10
20.6058
 20
-28.0336
 30
0.0
  0
VERTEX
  8
2
  5
45A
  6
HIDDEN
 62
4
 10
20.534
 20
-28.0752
 30
0.0
  0
VERTEX
  8
2
  5
45B
  6
HIDDEN
 62
4
 10
20.4621
 20
-28.0336
 30
0.0
  0
VERTEX
  8
2
  5
45C
  6
HIDDEN
 62
4
 10
20.4621
 20
-28.0311
 30
0.0
  0
SEQEND
  8
2
  5
45D
  0
POLYLINE
  8
2
  5
45F
  6
HIDDEN
 62
4
 10
0.0
 20
0.0
 30
0.0
 66
1
 70
0
  0
VERTEX
  8
2
  5
460
  6
HIDDEN
 62
4
 10
20.4621
 20
-27.963
 30
0.0
  0
VERTEX
  8
2
  5
461
  6
HIDDEN
 62
4
 10
20.4621
 20
-27.9507
 30
0.0
  0
VERTEX
  8
2
  5
462
  6
HIDDEN
 62
4
 10
20.534
 20
-27.9092
 30
0.0
  0
VERTEX
  8
2
  5
463
  6
HIDDEN
 62
4
 10
20.6058
 20
-27.9507
 30
0.0
  0
VERTEX
  8
2
  5
464
  6
HIDDEN
 62
4
 10
20.6058
 20
-27.963
 30
0.0
  0
SEQEND
  8
2
  5
465
  0
ARC
  8
2
  5
467
  6
HIDDEN
 62
4
 10
20.532704
 20
-27.992143
 30
0.0
 40
0.127354
 50
197.7684666667
 51
342.2315361111
  0
LINE
  8
2
  5
469
  6
HIDDEN
 62
4
 10
20.3167
 20
-28.0488
 30
0.0
 11
20.3167
 21
-28.1875
 31
0.0
  0
LINE
  8
2
  5
46B
  6
HIDDEN
 62
4
 10
20.256
 20
-28.0488
 30
0.0
 11
20.256
 21
-28.1447
 31
0.0
  0
ARC
  8
2
  5
46D
  6
HIDDEN
 62
4
 10
20.532704
 20
-27.992143
 30
0.0
 40
0.127354
 50
112.3983111111
 51
166.7987083333
  0
LINE
  8
2
  5
46F
  6
HIDDEN
 62
4
 10
19.818
 20
-28.0339
 30
0.0
 11
19.818
 21
-27.9666
 31
0.0
  0
LINE
  8
2
  5
471
  6
HIDDEN
 62
4
 10
20.6669
 20
-27.963
 30
0.0
 11
20.341
 21
-27.963
 31
0.0
  0
LINE
  8
2
  5
473
  6
HIDDEN
 62
4
 10
21.8018
 20
-28.0311
 30
0.0
 11
21.8018
 21
-28.1875
 31
0.0
  0
LINE
  8
2
  5
475
  6
HIDDEN
 62
4
 10
21.6526
 20
-28.0311
 30
0.0
 11
21.6526
 21
-28.0336
 31
0.0
  0
POLYLINE
  8
2
  5
477
  6
HIDDEN
 62
4
 10
0.0
 20
0.0
 30
0.0
 66
1
 70
0
  0
VERTEX
  8
2
  5
478
  6
HIDDEN
 62
4
 10
21.6526
 20
-28.0336
 30
0.0
  0
VERTEX
  8
2
  5
479
  6
HIDDEN
 62
4
 10
21.5807
 20
-28.0752
 30
0.0
  0
VERTEX
  8
2
  5
47A
  6
HIDDEN
 62
4
 10
21.5088
 20
-28.0336
 30
0.0
  0
VERTEX
  8
2
  5
47B
  6
HIDDEN
 62
4
 10
21.5088
 20
-28.0311
 30
0.0
  0
SEQEND
  8
2
  5
47C
  0
POLYLINE
  8
2
  5
47E
  6
HIDDEN
 62
4
 10
0.0
 20
0.0
 30
0.0
 66
1
 70
0
  0
VERTEX
  8
2
  5
47F
  6
HIDDEN
 62
4
 10
21.5088
 20
-27.963
 30
0.0
  0
VERTEX
  8
2
  5
480
  6
HIDDEN
 62
4
 10
21.5088
 20
-27.9507
 30
0.0
  0
VERTEX
  8
2
  5
481
  6
HIDDEN
 62
4
 10
21.5807
 20
-27.9092
 30
0.0
  0
VERTEX
  8
2
  5
482
  6
HIDDEN
 62
4
 10
21.6526
 20
-27.9507
 30
0.0
  0
VERTEX
  8
2
  5
483
  6
HIDDEN
 62
4
 10
21.6526
 20
-27.963
 30
0.0
  0
SEQEND
  8
2
  5
484
  0
ARC
  8
2
  5
486
  6
HIDDEN
 62
4
 10
21.580731
 20
-27.992143
 30
0.0
 40
0.127354
 50
13.2012916667
 51
166.7987083333
  0
LINE
  8
2
  5
488
  6
HIDDEN
 62
4
 10
19.6988
 20
-27.6388
 30
0.0
 11
19.7382
 21
-27.666
 31
0.0
  0
LINE
  8
2
  5
48A
  6
HIDDEN
 62
4
 10
19.7382
 20
-27.666
 30
0.0
 11
20.2147
 21
-27.7383
 31
0.0
  0
LINE
  8
2
  5
48C
  6
HIDDEN
 62
4
 10
19.8712
 20
-26.428
 30
0.0
 11
20.2147
 21
-26.3758
 31
0.0
  0
ARC
  8
2
  5
48E
  6
HIDDEN
 62
4
 10
20.196683
 20
-26.257174
 30
0.0
 40
0.120004
 50
278.6378583333
 51
0.0
  0
ARC
  8
2
  5
490
  6
HIDDEN
 62
4
 10
20.196683
 20
-27.857011
 30
0.0
 40
0.120004
 50
0.0
 51
81.3621416667
  0
POLYLINE
  8
2
  5
492
  6
HIDDEN
 62
4
 10
0.0
 20
0.0
 30
0.0
 66
1
 70
0
  0
VERTEX
  8
2
  5
493
  6
HIDDEN
 62
4
 10
21.1586
 20
-27.1522
 30
0.0
  0
VERTEX
  8
2
  5
494
  6
HIDDEN
 62
4
 10
20.9936
 20
-27.2474
 30
0.0
  0
VERTEX
  8
2
  5
495
  6
HIDDEN
 62
4
 10
20.8289
 20
-27.1522
 30
0.0
  0
VERTEX
  8
2
  5
496
  6
HIDDEN
 62
4
 10
20.8289
 20
-26.962
 30
0.0
  0
VERTEX
  8
2
  5
497
  6
HIDDEN
 62
4
 10
20.9936
 20
-26.8668
 30
0.0
  0
VERTEX
  8
2
  5
498
  6
HIDDEN
 62
4
 10
21.1586
 20
-26.962
 30
0.0
  0
VERTEX
  8
2
  5
499
  6
HIDDEN
 62
4
 10
21.1586
 20
-27.1522
 30
0.0
  0
SEQEND
  8
2
  5
49A
  0
CIRCLE
  8
2
  5
49C
  6
HIDDEN
 62
4
 10
20.99374
 20
-27.057092
 30
0.0
 40
0.125083
  0
ARC
  8
2
  5
49E
  6
HIDDEN
 62
4
 10
20.99374
 20
-27.057092
 30
0.0
 40
0.353051
 50
242.888275
 51
297.111725
  0
LINE
  8
2
  5
4A0
  6
HIDDEN
 62
4
 10
20.0328
 20
-27.1215
 30
0.0
 11
20.6466
 21
-27.1215
 31
0.0
  0
LINE
  8
2
  5
4A2
  6
HIDDEN
 62
4
 10
20.0328
 20
-26.9926
 30
0.0
 11
20.6466
 21
-26.9926
 31
0.0
  0
LINE
  8
2
  5
4A4
  6
HIDDEN
 62
4
 10
21.3409
 20
-27.1215
 30
0.0
 11
21.9547
 21
-27.1215
 31
0.0
  0
LINE
  8
2
  5
4A6
  6
HIDDEN
 62
4
 10
21.3409
 20
-26.9926
 30
0.0
 11
21.9547
 21
-26.9926
 31
0.0
  0
LINE
  8
2
  5
4A8
  6
HIDDEN
 62
4
 10
21.2392
 20
-27.3108
 30
0.0
 11
21.9229
 21
-27.3108
 31
0.0
  0
LINE
  8
2
  5
4AA
  6
HIDDEN
 62
4
 10
21.3239
 20
-27.1821
 30
0.0
 11
21.9488
 21
-27.1821
 31
0.0
  0
LINE
  8
2
  5
4AC
  6
HIDDEN
 62
4
 10
20.0386
 20
-27.1821
 30
0.0
 11
20.6635
 21
-27.1821
 31
0.0
  0
LINE
  8
2
  5
4AE
  6
HIDDEN
 62
4
 10
20.0646
 20
-27.3108
 30
0.0
 11
20.7482
 21
-27.3108
 31
0.0
  0
LINE
  8
2
  5
4B0
  6
HIDDEN
 62
4
 10
21.1547
 20
-27.3713
 30
0.0
 11
21.9041
 21
-27.3713
 31
0.0
  0
LINE
  8
2
  5
4B2
  6
HIDDEN
 62
4
 10
20.1385
 20
-27.5
 30
0.0
 11
20.3313
 21
-27.5
 31
0.0
  0
LINE
  8
2
  5
4B4
  6
HIDDEN
 62
4
 10
20.0833
 20
-27.3713
 30
0.0
 11
20.8328
 21
-27.3713
 31
0.0
  0
LINE
  8
2
  5
4B6
  6
HIDDEN
 62
4
 10
20.1727
 20
-27.5606
 30
0.0
 11
20.3244
 21
-27.5606
 31
0.0
  0
LINE
  8
2
  5
4B8
  6
HIDDEN
 62
4
 10
20.2672
 20
-27.6895
 30
0.0
 11
20.3901
 21
-27.6895
 31
0.0
  0
ARC
  8
2
  5
4BA
  6
HIDDEN
 62
4
 10
20.99374
 20
-27.057092
 30
0.0
 40
0.353051
 50
200.7257277778
 51
225.9352805556
  0
ARC
  8
2
  5
4BC
  6
HIDDEN
 62
4
 10
20.99374
 20
-27.057092
 30
0.0
 40
0.353051
 50
169.4945
 51
190.5055
  0
ARC
  8
2
  5
4BE
  6
HIDDEN
 62
4
 10
20.99374
 20
-27.057092
 30
0.0
 40
0.353051
 50
314.0647222222
 51
339.274275
  0
LINE
  8
2
  5
4C0
  6
HIDDEN
 62
4
 10
20.4912
 20
-27.8787
 30
0.0
 11
21.4963
 21
-27.8787
 31
0.0
  0
LINE
  8
2
  5
4C2
  6
HIDDEN
 62
4
 10
20.3247
 20
-27.75
 30
0.0
 11
21.6627
 21
-27.75
 31
0.0
  0
LINE
  8
2
  5
4C4
  6
HIDDEN
 62
4
 10
20.6073
 20
-27.9394
 30
0.0
 11
21.3803
 21
-27.9394
 31
0.0
  0
LINE
  8
2
  5
4C6
  6
HIDDEN
 62
4
 10
20.0386
 20
-26.9322
 30
0.0
 11
20.6635
 21
-26.9322
 31
0.0
  0
LINE
  8
2
  5
4C8
  6
HIDDEN
 62
4
 10
20.0646
 20
-26.8034
 30
0.0
 11
20.7482
 21
-26.8034
 31
0.0
  0
LINE
  8
2
  5
4CA
  6
HIDDEN
 62
4
 10
21.3239
 20
-26.9322
 30
0.0
 11
21.9488
 21
-26.9322
 31
0.0
  0
LINE
  8
2
  5
4CC
  6
HIDDEN
 62
4
 10
21.2392
 20
-26.8034
 30
0.0
 11
21.9229
 21
-26.8034
 31
0.0
  0
LINE
  8
2
  5
4CE
  6
HIDDEN
 62
4
 10
21.1547
 20
-26.7428
 30
0.0
 11
21.9041
 21
-26.7428
 31
0.0
  0
LINE
  8
2
  5
4D0
  6
HIDDEN
 62
4
 10
20.0833
 20
-26.7428
 30
0.0
 11
20.8328
 21
-26.7428
 31
0.0
  0
LINE
  8
2
  5
4D2
  6
HIDDEN
 62
4
 10
20.1385
 20
-26.6141
 30
0.0
 11
20.3273
 21
-26.6141
 31
0.0
  0
LINE
  8
2
  5
4D4
  6
HIDDEN
 62
4
 10
20.1727
 20
-26.5534
 30
0.0
 11
20.3214
 21
-26.5534
 31
0.0
  0
LINE
  8
2
  5
4D6
  6
HIDDEN
 62
4
 10
20.2672
 20
-26.4248
 30
0.0
 11
20.3909
 21
-26.4248
 31
0.0
  0
LINE
  8
2
  5
4D8
  6
HIDDEN
 62
4
 10
20.3247
 20
-26.3642
 30
0.0
 11
21.6627
 21
-26.3642
 31
0.0
  0
LINE
  8
2
  5
4DA
  6
HIDDEN
 62
4
 10
20.4912
 20
-26.2355
 30
0.0
 11
21.4963
 21
-26.2355
 31
0.0
  0
LINE
  8
2
  5
4DC
  6
HIDDEN
 62
4
 10
20.6073
 20
-26.1749
 30
0.0
 11
21.3803
 21
-26.1749
 31
0.0
  0
ARC
  8
2
  5
4DE
  6
HIDDEN
 62
4
 10
20.99374
 20
-27.057092
 30
0.0
 40
0.353051
 50
134.0647222222
 51
159.274275
  0
ARC
  8
2
  5
4E0
  6
HIDDEN
 62
4
 10
20.99374
 20
-27.057092
 30
0.0
 40
0.353051
 50
62.888275
 51
117.111725
  0
ARC
  8
2
  5
4E2
  6
HIDDEN
 62
4
 10
20.99374
 20
-27.057092
 30
0.0
 40
0.353051
 50
20.7257277778
 51
45.9352805556
  0
ARC
  8
2
  5
4E4
  6
HIDDEN
 62
4
 10
20.99374
 20
-27.057092
 30
0.0
 40
0.353051
 50
349.4945
 51
10.5055
  0
LINE
  8
2
  5
4E6
  6
HIDDEN
 62
4
 10
22.5103
 20
-28.2312
 30
0.0
 11
22.626
 21
-28.2312
 31
0.0
  0
LINE
  8
2
  5
4E8
  6
HIDDEN
 62
4
 10
22.5103
 20
-28.1999
 30
0.0
 11
22.626
 21
-28.1999
 31
0.0
  0
LINE
  8
2
  5
4EA
  6
HIDDEN
 62
4
 10
22.5103
 20
-28.1686
 30
0.0
 11
22.626
 21
-28.1686
 31
0.0
  0
LINE
  8
2
  5
4EC
  6
HIDDEN
 62
4
 10
22.5103
 20
-28.1373
 30
0.0
 11
22.626
 21
-28.1373
 31
0.0
  0
LINE
  8
2
  5
4EE
  6
HIDDEN
 62
4
 10
22.5103
 20
-28.1061
 30
0.0
 11
22.626
 21
-28.1061
 31
0.0
  0
LINE
  8
2
  5
4F0
  6
HIDDEN
 62
4
 10
22.5103
 20
-28.0748
 30
0.0
 11
22.626
 21
-28.0748
 31
0.0
  0
LINE
  8
2
  5
4F2
  6
HIDDEN
 62
4
 10
22.5103
 20
-28.0436
 30
0.0
 11
22.626
 21
-28.0436
 31
0.0
  0
LINE
  8
2
  5
4F4
  6
HIDDEN
 62
4
 10
22.5107
 20
-26.1013
 30
0.0
 11
22.6267
 21
-26.1013
 31
0.0
  0
LINE
  8
2
  5
4F6
  6
HIDDEN
 62
4
 10
22.5107
 20
-26.0701
 30
0.0
 11
22.6267
 21
-26.0701
 31
0.0
  0
LINE
  8
2
  5
4F8
  6
HIDDEN
 62
4
 10
22.5107
 20
-26.0388
 30
0.0
 11
22.6267
 21
-26.0388
 31
0.0
  0
LINE
  8
2
  5
4FA
  6
HIDDEN
 62
4
 10
22.5107
 20
-26.0076
 30
0.0
 11
22.6267
 21
-26.0076
 31
0.0
  0
LINE
  8
2
  5
4FC
  6
HIDDEN
 62
4
 10
22.5107
 20
-25.9763
 30
0.0
 11
22.6267
 21
-25.9763
 31
0.0
  0
LINE
  8
2
  5
4FE
  6
HIDDEN
 62
4
 10
22.5107
 20
-25.9451
 30
0.0
 11
22.6267
 21
-25.9451
 31
0.0
  0
LINE
  8
2
  5
500
  6
HIDDEN
 62
4
 10
22.5107
 20
-25.9138
 30
0.0
 11
22.6267
 21
-25.9138
 31
0.0
  0
LINE
  8
2
  5
502
  6
HIDDEN
 62
4
 10
22.1091
 20
-26.4277
 30
0.0
 11
21.7314
 21
-26.4277
 31
0.0
  0
LINE
  8
2
  5
504
  6
HIDDEN
 62
4
 10
22.1091
 20
-27.6764
 30
0.0
 11
21.7314
 21
-27.6764
 31
0.0
  0
LINE
  8
2
  5
506
  6
HIDDEN
 62
4
 10
22.1985
 20
-26.4546
 30
0.0
 11
22.2761
 21
-26.4546
 31
0.0
  0
LINE
  8
2
  5
508
  6
HIDDEN
 62
4
 10
22.1985
 20
-26.4234
 30
0.0
 11
22.2761
 21
-26.4234
 31
0.0
  0
LINE
  8
2
  5
50A
  6
HIDDEN
 62
4
 10
22.1985
 20
-26.3921
 30
0.0
 11
22.2761
 21
-26.3921
 31
0.0
  0
LINE
  8
2
  5
50C
  6
HIDDEN
 62
4
 10
22.1985
 20
-26.3608
 30
0.0
 11
22.2761
 21
-26.3608
 31
0.0
  0
LINE
  8
2
  5
50E
  6
HIDDEN
 62
4
 10
22.1982
 20
-27.7522
 30
0.0
 11
22.2728
 21
-27.7522
 31
0.0
  0
LINE
  8
2
  5
510
  6
HIDDEN
 62
4
 10
22.1982
 20
-27.7209
 30
0.0
 11
22.2728
 21
-27.7209
 31
0.0
  0
LINE
  8
2
  5
512
  6
HIDDEN
 62
4
 10
22.1982
 20
-27.6897
 30
0.0
 11
22.2728
 21
-27.6897
 31
0.0
  0
LINE
  8
2
  5
514
  6
HIDDEN
 62
4
 10
22.1982
 20
-27.6584
 30
0.0
 11
22.2728
 21
-27.6584
 31
0.0
  0
LINE
  8
2
  5
516
  6
HIDDEN
 62
4
 10
22.1091
 20
-27.6575
 30
0.0
 11
22.1091
 21
-27.6764
 31
0.0
  0
LINE
  8
2
  5
518
  6
HIDDEN
 62
4
 10
22.1858
 20
-26.2739
 30
0.0
 11
22.1858
 21
-27.8403
 31
0.0
  0
CIRCLE
  8
2
  5
51A
  6
HIDDEN
 62
4
 10
21.487081
 20
-27.547293
 30
0.0
 40
0.127354
  0
POLYLINE
  8
2
  5
51C
  6
HIDDEN
 62
4
 10
0.0
 20
0.0
 30
0.0
 66
1
 70
0
  0
VERTEX
  8
2
  5
51D
  6
HIDDEN
 62
4
 10
21.5604
 20
-27.5085
 30
0.0
  0
VERTEX
  8
2
  5
51E
  6
HIDDEN
 62
4
 10
21.4902
 20
-27.4644
 30
0.0
  0
VERTEX
  8
2
  5
51F
  6
HIDDEN
 62
4
 10
21.4168
 20
-27.5031
 30
0.0
  0
VERTEX
  8
2
  5
520
  6
HIDDEN
 62
4
 10
21.4137
 20
-27.5859
 30
0.0
  0
VERTEX
  8
2
  5
521
  6
HIDDEN
 62
4
 10
21.4841
 20
-27.6302
 30
0.0
  0
VERTEX
  8
2
  5
522
  6
HIDDEN
 62
4
 10
21.5573
 20
-27.5916
 30
0.0
  0
VERTEX
  8
2
  5
523
  6
HIDDEN
 62
4
 10
21.5604
 20
-27.5085
 30
0.0
  0
SEQEND
  8
2
  5
524
  0
POLYLINE
  8
2
  5
526
  6
HIDDEN
 62
4
 10
0.0
 20
0.0
 30
0.0
 66
1
 70
0
  0
VERTEX
  8
2
  5
527
  6
HIDDEN
 62
4
 10
20.5422
 20
-27.6238
 30
0.0
  0
VERTEX
  8
2
  5
528
  6
HIDDEN
 62
4
 10
20.5864
 20
-27.5537
 30
0.0
  0
VERTEX
  8
2
  5
529
  6
HIDDEN
 62
4
 10
20.5477
 20
-27.4801
 30
0.0
  0
VERTEX
  8
2
  5
52A
  6
HIDDEN
 62
4
 10
20.4648
 20
-27.4771
 30
0.0
  0
VERTEX
  8
2
  5
52B
  6
HIDDEN
 62
4
 10
20.4206
 20
-27.5472
 30
0.0
  0
VERTEX
  8
2
  5
52C
  6
HIDDEN
 62
4
 10
20.4594
 20
-27.6206
 30
0.0
  0
VERTEX
  8
2
  5
52D
  6
HIDDEN
 62
4
 10
20.5422
 20
-27.6238
 30
0.0
  0
SEQEND
  8
2
  5
52E
  0
CIRCLE
  8
2
  5
530
  6
HIDDEN
 62
4
 10
20.503539
 20
-27.550434
 30
0.0
 40
0.127354
  0
POLYLINE
  8
2
  5
532
  6
HIDDEN
 62
4
 10
0.0
 20
0.0
 30
0.0
 66
1
 70
0
  0
VERTEX
  8
2
  5
533
  6
HIDDEN
 62
4
 10
20.427
 20
-26.6056
 30
0.0
  0
VERTEX
  8
2
  5
534
  6
HIDDEN
 62
4
 10
20.4972
 20
-26.6498
 30
0.0
  0
VERTEX
  8
2
  5
535
  6
HIDDEN
 62
4
 10
20.5706
 20
-26.611
 30
0.0
  0
VERTEX
  8
2
  5
536
  6
HIDDEN
 62
4
 10
20.5738
 20
-26.5282
 30
0.0
  0
VERTEX
  8
2
  5
537
  6
HIDDEN
 62
4
 10
20.5036
 20
-26.484
 30
0.0
  0
VERTEX
  8
2
  5
538
  6
HIDDEN
 62
4
 10
20.4301
 20
-26.5227
 30
0.0
  0
VERTEX
  8
2
  5
539
  6
HIDDEN
 62
4
 10
20.427
 20
-26.6056
 30
0.0
  0
SEQEND
  8
2
  5
53A
  0
CIRCLE
  8
2
  5
53C
  6
HIDDEN
 62
4
 10
20.500399
 20
-26.566892
 30
0.0
 40
0.127354
  0
POLYLINE
  8
2
  5
53E
  6
HIDDEN
 62
4
 10
0.0
 20
0.0
 30
0.0
 66
1
 70
0
  0
VERTEX
  8
2
  5
53F
  6
HIDDEN
 62
4
 10
21.4453
 20
-26.4904
 30
0.0
  0
VERTEX
  8
2
  5
540
  6
HIDDEN
 62
4
 10
21.401
 20
-26.5605
 30
0.0
  0
VERTEX
  8
2
  5
541
  6
HIDDEN
 62
4
 10
21.4397
 20
-26.634
 30
0.0
  0
VERTEX
  8
2
  5
542
  6
HIDDEN
 62
4
 10
21.5226
 20
-26.6372
 30
0.0
  0
VERTEX
  8
2
  5
543
  6
HIDDEN
 62
4
 10
21.5668
 20
-26.5669
 30
0.0
  0
VERTEX
  8
2
  5
544
  6
HIDDEN
 62
4
 10
21.5281
 20
-26.4936
 30
0.0
  0
VERTEX
  8
2
  5
545
  6
HIDDEN
 62
4
 10
21.4453
 20
-26.4904
 30
0.0
  0
SEQEND
  8
2
  5
546
  0
CIRCLE
  8
2
  5
548
  6
HIDDEN
 62
4
 10
21.483941
 20
-26.563751
 30
0.0
 40
0.127354
  0
ARC
  8
2
  5
54A
  6
HIDDEN
 62
4
 10
21.483941
 20
-26.563751
 30
0.0
 40
0.179397
 50
343.7036722222
 51
3.2695111111
  0
ARC
  8
2
  5
54C
  6
HIDDEN
 62
4
 10
21.487081
 20
-27.547293
 30
0.0
 40
0.179397
 50
164.7458944444
 51
184.2746555556
  0
ARC
  8
2
  5
54E
  6
HIDDEN
 62
4
 10
20.500399
 20
-26.566892
 30
0.0
 40
0.179397
 50
175.7253444444
 51
195.2541055556
  0
ARC
  8
2
  5
550
  6
HIDDEN
 62
4
 10
20.503539
 20
-27.550434
 30
0.0
 40
0.179397
 50
356.7304888889
 51
16.2963277778
  0
LINE
  8
2
  5
552
  6
HIDDEN
 62
4
 10
21.6561
 20
-26.6141
 30
0.0
 11
21.8489
 21
-26.6141
 31
0.0
  0
LINE
  8
2
  5
554
  6
HIDDEN
 62
4
 10
21.663
 20
-26.5534
 30
0.0
 11
21.8147
 21
-26.5534
 31
0.0
  0
LINE
  8
2
  5
556
  6
HIDDEN
 62
4
 10
21.5974
 20
-26.4248
 30
0.0
 11
21.7202
 21
-26.4248
 31
0.0
  0
LINE
  8
2
  5
558
  6
HIDDEN
 62
4
 10
20.6099
 20
-26.4248
 30
0.0
 11
21.3705
 21
-26.4248
 31
0.0
  0
LINE
  8
2
  5
55A
  6
HIDDEN
 62
4
 10
20.6793
 20
-26.5534
 30
0.0
 11
21.3048
 21
-26.5534
 31
0.0
  0
LINE
  8
2
  5
55C
  6
HIDDEN
 62
4
 10
20.6735
 20
-26.6141
 30
0.0
 11
21.3117
 21
-26.6141
 31
0.0
  0
LINE
  8
2
  5
55E
  6
HIDDEN
 62
4
 10
20.6757
 20
-27.5
 30
0.0
 11
21.3141
 21
-27.5
 31
0.0
  0
LINE
  8
2
  5
560
  6
HIDDEN
 62
4
 10
20.6826
 20
-27.5606
 30
0.0
 11
21.3081
 21
-27.5606
 31
0.0
  0
LINE
  8
2
  5
562
  6
HIDDEN
 62
4
 10
20.617
 20
-27.6895
 30
0.0
 11
21.3776
 21
-27.6895
 31
0.0
  0
LINE
  8
2
  5
564
  6
HIDDEN
 62
4
 10
21.5966
 20
-27.6895
 30
0.0
 11
21.7202
 21
-27.6895
 31
0.0
  0
LINE
  8
2
  5
566
  6
HIDDEN
 62
4
 10
21.666
 20
-27.5606
 30
0.0
 11
21.8147
 21
-27.5606
 31
0.0
  0
LINE
  8
2
  5
568
  6
HIDDEN
 62
4
 10
21.6601
 20
-27.5
 30
0.0
 11
21.8489
 21
-27.5
 31
0.0
  0
ARC
  8
2
  5
56A
  6
HIDDEN
 62
4
 10
20.500399
 20
-26.566892
 30
0.0
 40
0.179397
 50
344.7458944444
 51
4.2746555556
  0
ARC
  8
2
  5
56C
  6
HIDDEN
 62
4
 10
20.500399
 20
-26.566892
 30
0.0
 40
0.179397
 50
52.390125
 51
127.6098777778
  0
ARC
  8
2
  5
56E
  6
HIDDEN
 62
4
 10
21.483941
 20
-26.563751
 30
0.0
 40
0.179397
 50
50.7759944444
 51
129.2240055556
  0
ARC
  8
2
  5
570
  6
HIDDEN
 62
4
 10
21.483941
 20
-26.563751
 30
0.0
 40
0.179397
 50
176.7304888889
 51
196.2963277778
  0
ARC
  8
2
  5
572
  6
HIDDEN
 62
4
 10
20.503539
 20
-27.550434
 30
0.0
 40
0.179397
 50
163.7036722222
 51
183.2695111111
  0
ARC
  8
2
  5
574
  6
HIDDEN
 62
4
 10
20.503539
 20
-27.550434
 30
0.0
 40
0.179397
 50
230.7759944444
 51
309.2240055556
  0
ARC
  8
2
  5
576
  6
HIDDEN
 62
4
 10
21.487081
 20
-27.547293
 30
0.0
 40
0.179397
 50
232.390125
 51
307.6098777778
  0
ARC
  8
2
  5
578
  6
HIDDEN
 62
4
 10
21.487081
 20
-27.547293
 30
0.0
 40
0.179397
 50
355.7253444444
 51
15.2541055556
  0
LINE
  8
2
  5
57A
  6
HIDDEN
 62
4
 10
18.1438
 20
-26.5613
 30
0.0
 11
17.6925
 21
-26.5613
 31
0.0
  0
LINE
  8
2
  5
57C
  6
HIDDEN
 62
4
 10
17.6424
 20
-26.5613
 30
0.0
 11
17.6424
 21
-26.894
 31
0.0
  0
LINE
  8
2
  5
57E
  6
HIDDEN
 62
4
 10
17.6424
 20
-27.5445
 30
0.0
 11
18.1438
 21
-27.5445
 31
0.0
  0
ARC
  8
2
  5
580
  6
HIDDEN
 62
4
 10
-19.81122
 20
-22.795749
 30
0.0
 40
38.06155
 50
354.3220555556
 51
355.3140361111
  0
ARC
  8
2
  5
582
  6
HIDDEN
 62
4
 10
55.65353
 20
-22.264974
 30
0.0
 40
38.123744
 50
185.6635888889
 51
186.4708527778
  0
ARC
  8
2
  5
584
  6
HIDDEN
 62
4
 10
55.65353
 20
-31.830253
 30
0.0
 40
38.123744
 50
173.5453444444
 51
174.3644555556
  0
ARC
  8
2
  5
586
  6
HIDDEN
 62
4
 10
-19.81122
 20
-31.299477
 30
0.0
 40
38.06155
 50
4.6563472222
 51
5.6617444444
  0
LINE
  8
2
  5
588
  6
HIDDEN
 62
4
 10
17.6424
 20
-27.2105
 30
0.0
 11
17.6424
 21
-27.5445
 31
0.0
  0
LINE
  8
1
  5
58A
  6
CONTINUOUS
 62
3
 10
18.1438
 20
-28.2147
 30
0.0
 11
18.1438
 21
-25.8996
 31
0.0
  0
LINE
  8
2
  5
58C
  6
CONTINUOUS
 62
3
 10
23.0592
 20
-25.0733
 30
0.0
 11
23.0592
 21
-29.0411
 31
0.0
  0
LINE
  8
2
  5
58E
  6
HIDDEN
 62
4
 10
23.4342
 20
-25.1641
 30
0.0
 11
23.4342
 21
-28.9503
 31
0.0
  0
ARC
  8
2
  5
590
  6
HIDDEN
 62
4
 10
26.651771
 20
-61.910969
 30
0.0
 40
36.887396
 50
90.7227944444
 51
95.5890694444
  0
LINE
  8
2
  5
592
  6
HIDDEN
 62
4
 10
23.0592
 20
-6.2937
 30
0.0
 11
18.6262
 21
-6.7682
 31
0.0
  0
LINE
  8
2
  5
594
  6
HIDDEN
 62
4
 10
23.0592
 20
-9.507
 30
0.0
 11
18.6262
 21
-9.0325
 31
0.0
  0
LINE
  8
1
  5
596
  6
CONTINUOUS
 62
3
 10
18.6262
 20
-9.1784
 30
0.0
 11
18.6262
 21
-6.6222
 31
0.0
  0
LINE
  8
2
  5
598
  6
HIDDEN
 62
4
 10
23.0592
 20
-25.4505
 30
0.0
 11
18.6262
 21
-25.925
 31
0.0
  0
LINE
  8
1
  5
59A
  6
CONTINUOUS
 62
3
 10
18.6262
 20
-25.7792
 30
0.0
 11
18.6262
 21
-28.3352
 31
0.0
  0
LINE
  8
2
  5
59C
  6
HIDDEN
 62
4
 10
23.0592
 20
-28.6638
 30
0.0
 11
18.6262
 21
-28.1895
 31
0.0
  0
LINE
  8
2
  5
59E
  6
CONTINUOUS
 62
3
 10
26.7666
 20
-4.1726
 30
0.0
 11
32.1777
 21
-4.1726
 31
0.0
  0
LINE
  8
2
  5
5A0
  6
CONTINUOUS
 62
3
 10
32.1777
 20
-4.1726
 30
0.0
 11
40.2269
 21
-4.1726
 31
0.0
  0
LINE
  8
2
  5
5A2
  6
CONTINUOUS
 62
3
 10
27.2544
 20
-4.2976
 30
0.0
 11
39.9909
 21
-4.2976
 31
0.0
  0
LINE
  8
2
  5
5A4
  6
CONTINUOUS
 62
3
 10
27.0979
 20
-5.5102
 30
0.0
 11
40.1472
 21
-5.5102
 31
0.0
  0
LINE
  8
2
  5
5A6
  6
CONTINUOUS
 62
3
 10
27.0818
 20
-5.6352
 30
0.0
 11
40.1633
 21
-5.6352
 31
0.0
  0
LINE
  8
2
  5
5A8
  6
CONTINUOUS
 62
3
 10
26.5039
 20
-10.1124
 30
0.0
 11
40.7412
 21
-10.1124
 31
0.0
  0
LINE
  8
2
  5
5AA
  6
CONTINUOUS
 62
3
 10
26.4878
 20
-10.2373
 30
0.0
 11
40.7574
 21
-10.2373
 31
0.0
  0
LINE
  8
2
  5
5AC
  6
HIDDEN
 62
4
 10
32.1777
 20
-30.785
 30
0.0
 11
32.2554
 21
-32.5922
 31
0.0
  0
LINE
  8
2
  5
5AE
  6
CONTINUOUS
 62
3
 10
32.5529
 20
-30.785
 30
0.0
 11
32.6307
 21
-32.5922
 31
0.0
  0
LINE
  8
2
  5
5B0
  6
CONTINUOUS
 62
3
 10
25.9876
 20
-20.8451
 30
0.0
 11
41.2574
 21
-20.8451
 31
0.0
  0
LINE
  8
2
  5
5B2
  6
CONTINUOUS
 62
3
 10
26.4878
 20
-24.7201
 30
0.0
 11
40.7574
 21
-24.7201
 31
0.0
  0
LINE
  8
2
  5
5B4
  6
CONTINUOUS
 62
3
 10
26.5039
 20
-24.8452
 30
0.0
 11
40.7412
 21
-24.8452
 31
0.0
  0
LINE
  8
2
  5
5B6
  6
CONTINUOUS
 62
3
 10
27.0818
 20
-29.3223
 30
0.0
 11
40.1633
 21
-29.3223
 31
0.0
  0
LINE
  8
2
  5
5B8
  6
CONTINUOUS
 62
3
 10
27.0979
 20
-29.4473
 30
0.0
 11
40.1472
 21
-29.4473
 31
0.0
  0
LINE
  8
2
  5
5BA
  6
CONTINUOUS
 62
3
 10
27.2544
 20
-30.6599
 30
0.0
 11
39.9909
 21
-30.6599
 31
0.0
  0
LINE
  8
2
  5
5BC
  6
CONTINUOUS
 62
3
 10
26.7666
 20
-30.785
 30
0.0
 11
32.1777
 21
-30.785
 31
0.0
  0
LINE
  8
2
  5
5BE
  6
CONTINUOUS
 62
3
 10
32.1777
 20
-30.785
 30
0.0
 11
42.2435
 21
-30.785
 31
0.0
  0
LINE
  8
2
  5
5C0
  6
CONTINUOUS
 62
3
 10
27.2868
 20
-30.9099
 30
0.0
 11
32.183
 21
-30.9099
 31
0.0
  0
LINE
  8
2
  5
5C2
  6
CONTINUOUS
 62
3
 10
32.5583
 20
-30.9099
 30
0.0
 11
39.9587
 21
-30.9099
 31
0.0
  0
LINE
  8
2
  5
5C4
  6
CONTINUOUS
 62
3
 10
27.4298
 20
-32.0193
 30
0.0
 11
32.2307
 21
-32.0193
 31
0.0
  0
LINE
  8
2
  5
5C6
  6
CONTINUOUS
 62
3
 10
32.606
 20
-32.0193
 30
0.0
 11
39.8154
 21
-32.0193
 31
0.0
  0
LINE
  8
2
  5
5C8
  6
CONTINUOUS
 62
3
 10
27.4461
 20
-32.1444
 30
0.0
 11
32.2361
 21
-32.1444
 31
0.0
  0
LINE
  8
2
  5
5CA
  6
CONTINUOUS
 62
3
 10
32.6114
 20
-32.1444
 30
0.0
 11
39.7992
 21
-32.1444
 31
0.0
  0
LINE
  8
2
  5
5CC
  6
CONTINUOUS
 62
3
 10
25.9876
 20
-14.1125
 30
0.0
 11
41.2574
 21
-14.1125
 31
0.0
  0
LINE
  8
2
  5
5CE
  6
HIDDEN
 62
4
 10
43.9608
 20
-20.0753
 30
0.0
 11
43.9608
 21
-14.8919
 31
0.0
  0
LINE
  8
2
  5
5D0
  6
HIDDEN
 62
4
 10
44.0859
 20
-20.0679
 30
0.0
 11
44.0859
 21
-14.8995
 31
0.0
  0
LINE
  8
2
  5
5D2
  6
CENTER
 62
1
 10
42.0574
 20
-16.2662
 30
0.0
 11
42.8544
 21
-16.2662
 31
0.0
  0
CIRCLE
  8
2
  5
5D4
  6
HIDDEN
 62
4
 10
42.455956
 20
-16.266236
 30
0.0
 40
0.125004
  0
LINE
  8
2
  5
5D6
  6
CENTER
 62
1
 10
42.4559
 20
-15.8677
 30
0.0
 11
42.4559
 21
-16.6647
 31
0.0
  0
LINE
  8
2
  5
5D8
  6
CENTER
 62
1
 10
42.0574
 20
-18.6913
 30
0.0
 11
42.8544
 21
-18.6913
 31
0.0
  0
CIRCLE
  8
2
  5
5DA
  6
HIDDEN
 62
4
 10
42.455956
 20
-18.691319
 30
0.0
 40
0.125004
  0
LINE
  8
2
  5
5DC
  6
CENTER
 62
1
 10
42.4559
 20
-19.0898
 30
0.0
 11
42.4559
 21
-18.2927
 31
0.0
  0
LINE
  8
2
  5
5DE
  6
CENTER
 62
1
 10
72.3106
 20
-16.3008
 30
0.0
 11
73.2078
 21
-16.3008
 31
0.0
  0
CIRCLE
  8
2
  5
5E0
  6
CONTINUOUS
 62
3
 10
72.759187
 20
-16.300837
 30
0.0
 40
0.124836
  0
LINE
  8
2
  5
5E2
  6
HIDDEN
 62
4
 10
23.0592
 20
-6.7966
 30
0.0
 11
18.6262
 21
-7.2709
 31
0.0
  0
LINE
  8
2
  5
5E4
  6
HIDDEN
 62
4
 10
23.0592
 20
-9.0041
 30
0.0
 11
18.6262
 21
-8.5298
 31
0.0
  0
ARC
  8
2
  5
5E6
  6
HIDDEN
 62
4
 10
26.651771
 20
-42.754118
 30
0.0
 40
36.387379
 50
90.0741638889
 51
95.6661194444
  0
ARC
  8
2
  5
5E8
  6
HIDDEN
 62
4
 10
26.651771
 20
26.953415
 30
0.0
 40
36.387379
 50
264.4109305556
 51
269.3595416667
  0
ARC
  8
2
  5
5EA
  6
HIDDEN
 62
4
 10
26.651771
 20
26.953415
 30
0.0
 40
36.387379
 50
269.3595416667
 51
270.3021388889
  0
ARC
  8
2
  5
5EC
  6
HIDDEN
 62
4
 10
26.651771
 20
-61.910969
 30
0.0
 40
36.387379
 50
90.6404583333
 51
95.6661194444
  0
ARC
  8
2
  5
5EE
  6
HIDDEN
 62
4
 10
26.651771
 20
7.796563
 30
0.0
 40
36.387379
 50
264.3338805556
 51
269.9258361111
  0
LINE
  8
1
  5
5F0
  6
CONTINUOUS
 62
3
 10
72.4883
 20
-17.2288
 30
0.0
 11
74.4882
 21
-17.2288
 31
0.0
  0
ARC
  8
1
  5
5F2
  6
CONTINUOUS
 62
3
 10
74.282575
 20
-38.59878
 30
0.0
 40
21.371
 50
82.3190944444
 51
89.4488555556
  0
LINE
  8
1
  5
5F4
  6
CONTINUOUS
 62
3
 10
72.4883
 20
-17.7287
 30
0.0
 11
74.4882
 21
-17.7287
 31
0.0
  0
ARC
  8
1
  5
5F6
  6
CONTINUOUS
 62
3
 10
74.282575
 20
3.641226
 30
0.0
 40
21.371
 50
270.5511444444
 51
277.6809055556
  0
ARC
  8
1
  5
5F8
  6
CONTINUOUS
 62
3
 10
52.606451
 20
-30.252282
 30
0.0
 40
10.649186
 50
100.2923194444
 51
156.1241888889
  0
ARC
  8
1
  5
5FA
  6
CONTINUOUS
 62
3
 10
52.606451
 20
-4.705272
 30
0.0
 40
10.649186
 50
203.8758111111
 51
259.7076805556
  0
ARC
  8
1
  5
5FC
  6
CONTINUOUS
 62
3
 10
73.589991
 20
-6.413921
 30
0.0
 40
1.690434
 50
94.1934888889
 51
139.9616638889
  0
ARC
  8
1
  5
5FE
  6
CONTINUOUS
 62
3
 10
73.252725
 20
-5.634205
 30
0.0
 40
0.931039
 50
19.3012277778
 51
76.7335944444
  0
ARC
  8
1
  5
600
  6
CONTINUOUS
 62
3
 10
9.045364
 20
-17.663434
 30
0.0
 40
66.244979
 50
0.5029944444
 51
10.733
  0
LINE
  8
1
  5
602
  6
CONTINUOUS
 62
3
 10
72.2592
 20
-7.4304
 30
0.0
 11
71.0087
 21
-6.7215
 31
0.0
  0
LINE
  8
2
  5
604
  6
HIDDEN
 62
4
 10
71.7591
 20
-17.1183
 30
0.0
 11
71.7591
 21
-7.2907
 31
0.0
  0
LINE
  8
1
  5
606
  6
CONTINUOUS
 62
3
 10
72.7593
 20
-16.9108
 30
0.0
 11
72.7593
 21
-7.4304
 31
0.0
  0
ARC
  8
1
  5
608
  6
CONTINUOUS
 62
3
 10
9.045364
 20
-17.663434
 30
0.0
 40
65.744962
 50
0.5456916667
 51
10.6838333333
  0
ARC
  8
1
  5
60A
  6
CONTINUOUS
 62
3
 10
73.589991
 20
-6.413921
 30
0.0
 40
1.190417
 50
98.3189555556
 51
139.9616638889
  0
ARC
  8
1
  5
60C
  6
CONTINUOUS
 62
3
 10
73.252725
 20
-5.634205
 30
0.0
 40
0.431022
 50
25.1439916667
 51
67.4873388889
  0
LINE
  8
1
  5
60E
  6
CONTINUOUS
 62
3
 10
72.2592
 20
-7.5743
 30
0.0
 11
70.9244
 21
-6.8174
 31
0.0
  0
LINE
  8
2
  5
610
  6
HIDDEN
 62
4
 10
71.7591
 20
-7.8656
 30
0.0
 11
71.0324
 21
-7.4535
 31
0.0
  0
POLYLINE
  8
1
  5
612
  6
CONTINUOUS
 62
3
 10
0.0
 20
0.0
 30
0.0
 66
1
 70
0
  0
VERTEX
  8
1
  5
613
  6
CONTINUOUS
 62
3
 10
71.451961
 20
-6.972736
 30
0.0
 42
-0.005435
  0
VERTEX
  8
1
  5
614
  6
CONTINUOUS
 62
3
 10
72.058388
 20
-6.303284
 30
0.0
 42
-0.005399
  0
VERTEX
  8
1
  5
615
  6
CONTINUOUS
 62
3
 10
72.681244
 20
-5.644941
 30
0.0
 42
-0.005399
  0
SEQEND
  8
1
  5
616
  0
POLYLINE
  8
1
  5
618
  6
CONTINUOUS
 62
3
 10
0.0
 20
0.0
 30
0.0
 66
1
 70
0
  0
VERTEX
  8
1
  5
619
  6
CONTINUOUS
 62
3
 10
71.008715
 20
-6.7214
 30
0.0
 42
-0.005636
  0
VERTEX
  8
1
  5
61A
  6
CONTINUOUS
 62
3
 10
71.64331
 20
-6.017891
 30
0.0
 42
-0.005598
  0
VERTEX
  8
1
  5
61B
  6
CONTINUOUS
 62
3
 10
72.29577
 20
-5.326465
 30
0.0
 42
-0.005598
  0
SEQEND
  8
1
  5
61C
  0
LINE
  8
1
  5
61E
  6
CONTINUOUS
 62
3
 10
72.391
 20
-6.9304
 30
0.0
 11
71.7937
 21
-6.5919
 31
0.0
  0
LINE
  8
1
  5
620
  6
CONTINUOUS
 62
3
 10
72.2592
 20
-7.4304
 30
0.0
 11
73.989
 21
-7.4304
 31
0.0
  0
LINE
  8
1
  5
622
  6
CONTINUOUS
 62
3
 10
72.391
 20
-6.9304
 30
0.0
 11
73.9084
 21
-6.9304
 31
0.0
  0
LINE
  8
2
  5
624
  6
HIDDEN
 62
4
 10
65.5129
 20
-15.83
 30
0.0
 11
71.7591
 21
-16.6617
 31
0.0
  0
LINE
  8
2
  5
626
  6
HIDDEN
 62
4
 10
69.3133
 20
-9.5977
 30
0.0
 11
71.7591
 21
-9.5977
 31
0.0
  0
LINE
  8
1
  5
628
  6
CONTINUOUS
 62
3
 10
72.7593
 20
-9.5977
 30
0.0
 11
74.2936
 21
-9.5977
 31
0.0
  0
LINE
  8
2
  5
62A
  6
HIDDEN
 62
4
 10
68.9457
 20
-10.0977
 30
0.0
 11
71.7591
 21
-10.0977
 31
0.0
  0
LINE
  8
1
  5
62C
  6
CONTINUOUS
 62
3
 10
72.7593
 20
-10.0977
 30
0.0
 11
74.3536
 21
-10.0977
 31
0.0
  0
LINE
  8
2
  5
62E
  6
HIDDEN
 62
4
 10
67.0943
 20
-12.9044
 30
0.0
 11
71.7591
 21
-12.9044
 31
0.0
  0
LINE
  8
1
  5
630
  6
CONTINUOUS
 62
3
 10
72.7593
 20
-12.9044
 30
0.0
 11
74.6178
 21
-12.9044
 31
0.0
  0
LINE
  8
2
  5
632
  6
HIDDEN
 62
4
 10
66.8
 20
-13.4044
 30
0.0
 11
71.7591
 21
-13.4044
 31
0.0
  0
LINE
  8
1
  5
634
  6
CONTINUOUS
 62
3
 10
72.7593
 20
-13.4044
 30
0.0
 11
74.6523
 21
-13.4044
 31
0.0
  0
LINE
  8
1
  5
636
  6
CONTINUOUS
 62
3
 10
72.2592
 20
-17.7287
 30
0.0
 11
72.2592
 21
-27.527
 31
0.0
  0
LINE
  8
2
  5
638
  6
CENTER
 62
1
 10
72.3106
 20
-18.6567
 30
0.0
 11
73.2078
 21
-18.6567
 31
0.0
  0
CIRCLE
  8
2
  5
63A
  6
CONTINUOUS
 62
3
 10
72.759187
 20
-18.656717
 30
0.0
 40
0.124836
  0
ARC
  8
1
  5
63C
  6
CONTINUOUS
 62
3
 10
73.589991
 20
-28.543634
 30
0.0
 40
1.690434
 50
220.0383361111
 51
265.8065111111
  0
ARC
  8
1
  5
63E
  6
CONTINUOUS
 62
3
 10
73.252725
 20
-29.32335
 30
0.0
 40
0.931039
 50
283.2664055556
 51
340.6987722222
  0
ARC
  8
1
  5
640
  6
CONTINUOUS
 62
3
 10
9.045364
 20
-17.294121
 30
0.0
 40
66.244979
 50
349.267
 51
359.4970055556
  0
LINE
  8
1
  5
642
  6
CONTINUOUS
 62
3
 10
72.2592
 20
-27.527
 30
0.0
 11
71.0087
 21
-28.2361
 31
0.0
  0
LINE
  8
2
  5
644
  6
HIDDEN
 62
4
 10
71.7591
 20
-17.8393
 30
0.0
 11
71.7591
 21
-27.6668
 31
0.0
  0
LINE
  8
1
  5
646
  6
CONTINUOUS
 62
3
 10
72.7593
 20
-18.0467
 30
0.0
 11
72.7593
 21
-27.527
 31
0.0
  0
ARC
  8
1
  5
648
  6
CONTINUOUS
 62
3
 10
73.589991
 20
-28.543634
 30
0.0
 40
1.190417
 50
220.0383361111
 51
261.6810444444
  0
ARC
  8
1
  5
64A
  6
CONTINUOUS
 62
3
 10
73.252725
 20
-29.32335
 30
0.0
 40
0.431022
 50
292.5126611111
 51
334.8560083333
  0
LINE
  8
1
  5
64C
  6
CONTINUOUS
 62
3
 10
72.2592
 20
-27.3834
 30
0.0
 11
70.9244
 21
-28.1402
 31
0.0
  0
LINE
  8
2
  5
64E
  6
HIDDEN
 62
4
 10
71.7591
 20
-27.0919
 30
0.0
 11
71.0324
 21
-27.5041
 31
0.0
  0
POLYLINE
  8
1
  5
650
  6
CONTINUOUS
 62
3
 10
0.0
 20
0.0
 30
0.0
 66
1
 70
0
  0
VERTEX
  8
1
  5
651
  6
CONTINUOUS
 62
3
 10
71.451961
 20
-27.984819
 30
0.0
 42
0.005435
  0
VERTEX
  8
1
  5
652
  6
CONTINUOUS
 62
3
 10
72.058388
 20
-28.654271
 30
0.0
 42
0.005399
  0
VERTEX
  8
1
  5
653
  6
CONTINUOUS
 62
3
 10
72.681244
 20
-29.312614
 30
0.0
 42
0.005399
  0
SEQEND
  8
1
  5
654
  0
POLYLINE
  8
1
  5
656
  6
CONTINUOUS
 62
3
 10
0.0
 20
0.0
 30
0.0
 66
1
 70
0
  0
VERTEX
  8
1
  5
657
  6
CONTINUOUS
 62
3
 10
71.008715
 20
-28.236155
 30
0.0
 42
0.005636
  0
VERTEX
  8
1
  5
658
  6
CONTINUOUS
 62
3
 10
71.64331
 20
-28.939664
 30
0.0
 42
0.005598
  0
VERTEX
  8
1
  5
659
  6
CONTINUOUS
 62
3
 10
72.29577
 20
-29.63109
 30
0.0
 42
0.005598
  0
SEQEND
  8
1
  5
65A
  0
LINE
  8
1
  5
65C
  6
CONTINUOUS
 62
3
 10
72.391
 20
-28.0271
 30
0.0
 11
71.7937
 21
-28.3658
 31
0.0
  0
LINE
  8
1
  5
65E
  6
CONTINUOUS
 62
3
 10
72.2592
 20
-27.527
 30
0.0
 11
73.989
 21
-27.527
 31
0.0
  0
LINE
  8
1
  5
660
  6
CONTINUOUS
 62
3
 10
72.391
 20
-28.0271
 30
0.0
 11
73.9084
 21
-28.0271
 31
0.0
  0
LINE
  8
2
  5
662
  6
HIDDEN
 62
4
 10
65.5129
 20
-19.1275
 30
0.0
 11
71.7591
 21
-18.296
 31
0.0
  0
LINE
  8
2
  5
664
  6
HIDDEN
 62
4
 10
69.3133
 20
-25.36
 30
0.0
 11
71.7591
 21
-25.36
 31
0.0
  0
LINE
  8
1
  5
666
  6
CONTINUOUS
 62
3
 10
72.7593
 20
-25.36
 30
0.0
 11
74.2936
 21
-25.36
 31
0.0
  0
LINE
  8
2
  5
668
  6
HIDDEN
 62
4
 10
68.9457
 20
-24.86
 30
0.0
 11
71.7591
 21
-24.86
 31
0.0
  0
LINE
  8
1
  5
66A
  6
CONTINUOUS
 62
3
 10
72.7593
 20
-24.86
 30
0.0
 11
74.3536
 21
-24.86
 31
0.0
  0
LINE
  8
2
  5
66C
  6
HIDDEN
 62
4
 10
67.0943
 20
-22.0531
 30
0.0
 11
71.7591
 21
-22.0531
 31
0.0
  0
LINE
  8
1
  5
66E
  6
CONTINUOUS
 62
3
 10
72.7593
 20
-22.0531
 30
0.0
 11
74.6178
 21
-22.0531
 31
0.0
  0
LINE
  8
2
  5
670
  6
HIDDEN
 62
4
 10
66.8
 20
-21.5531
 30
0.0
 11
71.7591
 21
-21.5531
 31
0.0
  0
LINE
  8
1
  5
672
  6
CONTINUOUS
 62
3
 10
72.7593
 20
-21.5531
 30
0.0
 11
74.6523
 21
-21.5531
 31
0.0
  0
POLYLINE
  8
2
  5
674
  6
HIDDEN
 62
4
 10
0.0
 20
0.0
 30
0.0
 66
1
 70
0
  0
VERTEX
  8
2
  5
675
  6
HIDDEN
 62
4
 10
64.763618
 20
-17.478777
 30
0.0
 42
-0.004015
  0
VERTEX
  8
2
  5
676
  6
HIDDEN
 62
4
 10
64.997404
 20
-16.940651
 30
0.0
 42
-0.004001
  0
VERTEX
  8
2
  5
677
  6
HIDDEN
 62
4
 10
65.240194
 20
-16.405446
 30
0.0
 42
-0.004001
  0
SEQEND
  8
2
  5
678
  0
POLYLINE
  8
2
  5
67A
  6
HIDDEN
 62
4
 10
0.0
 20
0.0
 30
0.0
 66
1
 70
0
  0
VERTEX
  8
2
  5
67B
  6
HIDDEN
 62
4
 10
65.220321
 20
-16.448412
 30
0.0
 42
-0.0369
  0
VERTEX
  8
2
  5
67C
  6
HIDDEN
 62
4
 10
67.923736
 20
-11.581322
 30
0.0
 42
-0.0355
  0
VERTEX
  8
2
  5
67D
  6
HIDDEN
 62
4
 10
71.367338
 20
-7.068521
 30
0.0
 42
-0.0355
  0
SEQEND
  8
2
  5
67E
  0
POLYLINE
  8
2
  5
680
  6
HIDDEN
 62
4
 10
0.0
 20
0.0
 30
0.0
 66
1
 70
0
  0
VERTEX
  8
2
  5
681
  6
HIDDEN
 62
4
 10
64.221743
 20
-17.478777
 30
0.0
 42
-0.004147
  0
VERTEX
  8
2
  5
682
  6
HIDDEN
 62
4
 10
64.463062
 20
-16.915001
 30
0.0
 42
-0.004133
  0
VERTEX
  8
2
  5
683
  6
HIDDEN
 62
4
 10
64.714109
 20
-16.354347
 30
0.0
 42
-0.004133
  0
SEQEND
  8
2
  5
684
  0
POLYLINE
  8
1
  5
686
  6
CONTINUOUS
 62
3
 10
0.0
 20
0.0
 30
0.0
 66
1
 70
0
  0
VERTEX
  8
1
  5
687
  6
CONTINUOUS
 62
3
 10
64.694019
 20
-16.398314
 30
0.0
 42
-0.03717
  0
VERTEX
  8
1
  5
688
  6
CONTINUOUS
 62
3
 10
67.42904
 20
-11.426592
 30
0.0
 42
-0.03577
  0
VERTEX
  8
1
  5
689
  6
CONTINUOUS
 62
3
 10
70.924411
 20
-6.817302
 30
0.0
 42
-0.03577
  0
SEQEND
  8
1
  5
68A
  0
POLYLINE
  8
2
  5
68C
  6
HIDDEN
 62
4
 10
0.0
 20
0.0
 30
0.0
 66
1
 70
0
  0
VERTEX
  8
2
  5
68D
  6
HIDDEN
 62
4
 10
64.763618
 20
-17.478777
 30
0.0
 42
0.004015
  0
VERTEX
  8
2
  5
68E
  6
HIDDEN
 62
4
 10
64.997404
 20
-18.016903
 30
0.0
 42
0.004001
  0
VERTEX
  8
2
  5
68F
  6
HIDDEN
 62
4
 10
65.240194
 20
-18.552109
 30
0.0
 42
0.004001
  0
SEQEND
  8
2
  5
690
  0
POLYLINE
  8
2
  5
692
  6
HIDDEN
 62
4
 10
0.0
 20
0.0
 30
0.0
 66
1
 70
0
  0
VERTEX
  8
2
  5
693
  6
HIDDEN
 62
4
 10
65.220321
 20
-18.509142
 30
0.0
 42
0.0369
  0
VERTEX
  8
2
  5
694
  6
HIDDEN
 62
4
 10
67.923736
 20
-23.376232
 30
0.0
 42
0.0355
  0
VERTEX
  8
2
  5
695
  6
HIDDEN
 62
4
 10
71.367338
 20
-27.889034
 30
0.0
 42
0.0355
  0
SEQEND
  8
2
  5
696
  0
POLYLINE
  8
2
  5
698
  6
HIDDEN
 62
4
 10
0.0
 20
0.0
 30
0.0
 66
1
 70
0
  0
VERTEX
  8
2
  5
699
  6
HIDDEN
 62
4
 10
64.221743
 20
-17.478778
 30
0.0
 42
0.004147
  0
VERTEX
  8
2
  5
69A
  6
HIDDEN
 62
4
 10
64.463062
 20
-18.042554
 30
0.0
 42
0.004133
  0
VERTEX
  8
2
  5
69B
  6
HIDDEN
 62
4
 10
64.714109
 20
-18.603208
 30
0.0
 42
0.004133
  0
SEQEND
  8
2
  5
69C
  0
POLYLINE
  8
1
  5
69E
  6
CONTINUOUS
 62
3
 10
0.0
 20
0.0
 30
0.0
 66
1
 70
0
  0
VERTEX
  8
1
  5
69F
  6
CONTINUOUS
 62
3
 10
64.694019
 20
-18.559241
 30
0.0
 42
0.03717
  0
VERTEX
  8
1
  5
6A0
  6
CONTINUOUS
 62
3
 10
67.42904
 20
-23.530963
 30
0.0
 42
0.03577
  0
VERTEX
  8
1
  5
6A1
  6
CONTINUOUS
 62
3
 10
70.924411
 20
-28.140252
 30
0.0
 42
0.03577
  0
SEQEND
  8
1
  5
6A2
  0
ARC
  8
2
  5
6A4
  6
HIDDEN
 62
4
 10
26.651771
 20
26.953415
 30
0.0
 40
37.0124
 50
269.2569722222
 51
270.0535916667
  0
LINE
  8
2
  5
6A6
  6
HIDDEN
 62
4
 10
26.678
 20
-5.7416
 30
0.0
 11
31.628
 21
-5.7416
 31
0.0
  0
LINE
  8
2
  5
6A8
  6
HIDDEN
 62
4
 10
26.678
 20
-10.059
 30
0.0
 11
31.628
 21
-10.059
 31
0.0
  0
LINE
  8
2
  5
6AA
  6
HIDDEN
 62
4
 10
26.779
 20
-9.934
 30
0.0
 11
31.6236
 21
-9.934
 31
0.0
  0
LINE
  8
2
  5
6AC
  6
HIDDEN
 62
4
 10
26.678
 20
-5.8667
 30
0.0
 11
31.6236
 21
-5.8667
 31
0.0
  0
LINE
  8
2
  5
6AE
  6
HIDDEN
 62
4
 10
26.6047
 20
-6.3668
 30
0.0
 11
31.6058
 21
-6.3668
 31
0.0
  0
LINE
  8
2
  5
6B0
  6
HIDDEN
 62
4
 10
26.779
 20
-9.4339
 30
0.0
 11
31.6058
 21
-9.4339
 31
0.0
  0
ARC
  8
2
  5
6B2
  6
HIDDEN
 62
4
 10
27.459181
 20
48.681774
 30
0.0
 40
58.263521
 50
274.05945
 51
283.7982555556
  0
ARC
  8
2
  5
6B4
  6
HIDDEN
 62
4
 10
27.459181
 20
-64.482478
 30
0.0
 40
58.263521
 50
76.2017444444
 51
85.918825
  0
ARC
  8
2
  5
6B6
  6
HIDDEN
 62
4
 10
27.459181
 20
-64.482478
 30
0.0
 40
58.888543
 50
75.0153972222
 51
85.94055
  0
ARC
  8
1
  5
6B8
  6
CONTINUOUS
 62
3
 10
27.459181
 20
-64.482478
 30
0.0
 40
58.888543
 50
73.9113777778
 51
75.0153861111
  0
ARC
  8
2
  5
6BA
  6
HIDDEN
 62
4
 10
27.459181
 20
-64.482478
 30
0.0
 40
58.763538
 50
75.1953805556
 51
85.9362333333
  0
ARC
  8
2
  5
6BC
  6
HIDDEN
 62
4
 10
27.459181
 20
48.681774
 30
0.0
 40
58.763538
 50
274.0637666667
 51
284.8046194444
  0
ARC
  8
2
  5
6BE
  6
HIDDEN
 62
4
 10
27.459181
 20
48.681774
 30
0.0
 40
58.888543
 50
274.05945
 51
285.0609527778
  0
ARC
  8
1
  5
6C0
  6
CONTINUOUS
 62
3
 10
27.459181
 20
48.681774
 30
0.0
 40
58.888543
 50
285.0609888889
 51
286.0886222222
  0
LINE
  8
1
  5
6C2
  6
CONTINUOUS
 62
3
 10
26.678
 20
-29.2159
 30
0.0
 11
26.1719
 21
-24.9017
 31
0.0
  0
LINE
  8
2
  5
6C4
  6
HIDDEN
 62
4
 10
26.0077
 20
-24.9041
 30
0.0
 11
26.5641
 21
-29.2158
 31
0.0
  0
ARC
  8
2
  5
6C6
  6
CONTINUOUS
 62
3
 10
26.651771
 20
-61.910969
 30
0.0
 40
37.0124
 50
90.7430222222
 51
90.9971861111
  0
ARC
  8
2
  5
6C8
  6
CONTINUOUS
 62
3
 10
26.651771
 20
7.796563
 30
0.0
 40
37.0124
 50
269.8641722222
 51
270.0406333333
  0
LINE
  8
2
  5
6CA
  6
CONTINUOUS
 62
3
 10
27.3195
 20
-29.2097
 30
0.0
 11
27.3339
 21
-29.3223
 31
0.0
  0
LINE
  8
2
  5
6CC
  6
CONTINUOUS
 62
3
 10
26.7561
 20
-24.8452
 30
0.0
 11
26.763
 21
-24.8987
 31
0.0
  0
LINE
  8
2
  5
6CE
  6
HIDDEN
 62
4
 10
26.763
 20
-24.8987
 30
0.0
 11
27.3195
 21
-29.2097
 31
0.0
  0
ARC
  8
2
  5
6D0
  6
HIDDEN
 62
4
 10
26.651771
 20
-61.910969
 30
0.0
 40
36.887396
 50
89.802275
 51
90.7227944444
  0
LINE
  8
2
  5
6D2
  6
CONTINUOUS
 62
3
 10
26.5039
 20
-24.8452
 30
0.0
 11
31.9222
 21
-24.8452
 31
0.0
  0
ARC
  8
2
  5
6D4
  6
HIDDEN
 62
4
 10
26.651771
 20
-61.910969
 30
0.0
 40
36.387379
 50
89.6978611111
 51
90.6404583333
  0
ARC
  8
13
  5
6D6
  6
HIDDEN
 62
4
 10
26.651771
 20
-61.910969
 30
0.0
 40
37.0124
 50
89.9464083333
 51
90.7430277778
  0
LINE
  8
13
  5
6D8
  6
HIDDEN
 62
4
 10
26.678
 20
-29.2159
 30
0.0
 11
31.628
 21
-29.2159
 31
0.0
  0
LINE
  8
13
  5
6DA
  6
HIDDEN
 62
4
 10
26.678
 20
-24.8984
 30
0.0
 11
31.628
 21
-24.8984
 31
0.0
  0
LINE
  8
2
  5
6DC
  6
HIDDEN
 62
4
 10
26.779
 20
-25.0235
 30
0.0
 11
31.6236
 21
-25.0235
 31
0.0
  0
ARC
  8
13
  5
6DE
  6
HIDDEN
 62
4
 10
27.459181
 20
29.524923
 30
0.0
 40
58.888543
 50
274.05945
 51
284.9846027778
  0
ARC
  8
1
  5
6E0
  6
CONTINUOUS
 62
3
 10
27.459181
 20
29.524923
 30
0.0
 40
58.888543
 50
284.9846138889
 51
286.0886222222
  0
ARC
  8
2
  5
6E2
  6
HIDDEN
 62
4
 10
27.459181
 20
29.524923
 30
0.0
 40
58.763538
 50
274.0637666667
 51
284.8046194444
  0
ARC
  8
2
  5
6E4
  6
HIDDEN
 62
4
 10
27.459181
 20
-83.639329
 30
0.0
 40
58.763538
 50
75.1953805556
 51
85.9362333333
  0
ARC
  8
13
  5
6E6
  6
HIDDEN
 62
4
 10
27.459181
 20
-83.639329
 30
0.0
 40
58.888543
 50
74.9390472222
 51
85.94055
  0
ARC
  8
1
  5
6E8
  6
CONTINUOUS
 62
3
 10
27.459181
 20
-83.639329
 30
0.0
 40
58.888543
 50
73.9113777778
 51
74.9390111111
  0
ARC
  8
1
  5
6EA
  6
CONTINUOUS
 62
3
 10
31.492242
 20
-153.615662
 30
0.0
 40
139.350474
 50
86.0074305556
 51
97.1111972222
  0
POLYLINE
  8
1
  5
6EC
  6
CONTINUOUS
 62
3
 10
0.0
 20
0.0
 30
0.0
 66
1
 70
0
  0
VERTEX
  8
1
  5
6ED
  6
CONTINUOUS
 62
3
 10
9.142524
 20
-18.184001
 30
0.0
 42
0.037622
  0
VERTEX
  8
1
  5
6EE
  6
CONTINUOUS
 62
3
 10
11.611882
 20
-19.082119
 30
0.0
 42
0.036059
  0
VERTEX
  8
1
  5
6EF
  6
CONTINUOUS
 62
3
 10
14.241297
 20
-19.62045
 30
0.0
 42
0.036059
  0
SEQEND
  8
1
  5
6F0
  0
ARC
  8
1
  5
6F2
  6
CONTINUOUS
 62
3
 10
31.492242
 20
118.658107
 30
0.0
 40
139.350474
 50
262.8888027778
 51
273.9925694444
  0
LINE
  8
2
  5
6F4
  6
CONTINUOUS
 62
3
 10
26.2071
 20
-14.3655
 30
0.0
 11
26.2237
 21
-14.2374
 31
0.0
  0
LINE
  8
2
  5
6F6
  6
CONTINUOUS
 62
3
 10
26.2398
 20
-14.1125
 30
0.0
 11
26.7399
 21
-10.2373
 31
0.0
  0
LINE
  8
2
  5
6F8
  6
CONTINUOUS
 62
3
 10
25.9716
 20
-14.2374
 30
0.0
 11
41.2735
 21
-14.2374
 31
0.0
  0
LINE
  8
2
  5
6FA
  6
CONTINUOUS
 62
3
 10
26.2071
 20
-20.5921
 30
0.0
 11
26.2237
 21
-20.72
 31
0.0
  0
LINE
  8
2
  5
6FC
  6
CONTINUOUS
 62
3
 10
26.2398
 20
-20.8451
 30
0.0
 11
26.7399
 21
-24.7201
 31
0.0
  0
LINE
  8
2
  5
6FE
  6
CONTINUOUS
 62
3
 10
25.9716
 20
-20.72
 30
0.0
 11
31.7446
 21
-20.72
 31
0.0
  0
LINE
  8
2
  5
700
  6
CONTINUOUS
 62
3
 10
32.12
 20
-20.72
 30
0.0
 11
41.2735
 21
-20.72
 31
0.0
  0
ARC
  8
2
  5
702
  6
HIDDEN
 62
4
 10
31.492242
 20
-153.615662
 30
0.0
 40
139.22547
 50
86.0074305556
 51
97.1111972222
  0
ARC
  8
2
  5
704
  6
HIDDEN
 62
4
 10
31.492242
 20
118.658107
 30
0.0
 40
139.22547
 50
262.8888027778
 51
273.9925694444
  0
LINE
  8
1
  5
706
  6
CONTINUOUS
 62
3
 10
43.6079
 20
-20.2125
 30
0.0
 11
42.8686
 21
-25.9421
 31
0.0
  0
LINE
  8
1
  5
708
  6
CONTINUOUS
 62
3
 10
42.8686
 20
-25.942
 30
0.0
 11
42.2435
 21
-30.785
 31
0.0
  0
LINE
  8
1
  5
70A
  6
CONTINUOUS
 62
3
 10
43.6079
 20
-14.7452
 30
0.0
 11
42.8685
 21
-9.0153
 31
0.0
  0
LINE
  8
1
  5
70C
  6
CONTINUOUS
 62
3
 10
42.8686
 20
-9.0155
 30
0.0
 11
42.2275
 21
-4.0476
 31
0.0
  0
ARC
  8
1
  5
70E
  6
CONTINUOUS
 62
3
 10
1257.428837
 20
126.276626
 30
0.0
 40
1240.644213
 50
187.2729777778
 51
187.3571194444
  0
LINE
  8
2
  5
710
  6
DIVIDE
 62
4
 10
25.67
 20
-32.5922
 30
0.0
 11
43.1402
 21
-32.5922
 31
0.0
  0
LINE
  8
1
  5
712
  6
CONTINUOUS
 62
3
 10
77.1389
 20
-17.4194
 30
0.0
 11
77.1389
 21
-17.538
 31
0.0
  0
LINE
  8
1
  5
714
  6
CONTINUOUS
 62
3
 10
72.2592
 20
-17.2288
 30
0.0
 11
72.2592
 21
-17.7287
 31
0.0
  0
ARC
  8
1
  5
716
  6
CONTINUOUS
 62
3
 10
72.489177
 20
-17.458777
 30
0.0
 40
0.230008
 50
90.0
 51
180.2242
  0
ARC
  8
1
  5
718
  6
CONTINUOUS
 62
3
 10
72.489177
 20
-17.498778
 30
0.0
 40
0.230008
 50
179.8256222222
 51
270.0
  0
LINE
  8
1
  5
71A
  6
CONTINUOUS
 62
3
 10
72.2592
 20
-17.4981
 30
0.0
 11
72.2592
 21
-17.4597
 31
0.0
  0
LINE
  8
2
  5
71C
  6
HIDDEN
 62
4
 10
24.9244
 20
-20.4123
 30
0.0
 11
24.9244
 21
-14.5451
 31
0.0
  0
LINE
  8
2
  5
71E
  6
HIDDEN
 62
4
 10
29.5332
 20
-20.5536
 30
0.0
 11
29.5332
 21
-14.4041
 31
0.0
  0
LINE
  8
2
  5
720
  6
HIDDEN
 62
4
 10
33.4476
 20
-20.5536
 30
0.0
 11
33.4476
 21
-14.4041
 31
0.0
  0
LINE
  8
2
  5
722
  6
CONTINUOUS
 62
2
 10
50.2721
 20
-19.5624
 30
0.0
 11
50.2721
 21
-15.3951
 31
0.0
  0
LINE
  8
2
  5
724
  6
HIDDEN
 62
4
 10
63.7256
 20
-18.626
 30
0.0
 11
63.7256
 21
-16.3315
 31
0.0
  0
LINE
  8
2
  5
726
  6
HIDDEN
 62
4
 10
56.5633
 20
-19.2223
 30
0.0
 11
56.5633
 21
-15.7352
 31
0.0
  0
LINE
  8
2
  5
728
  6
HIDDEN
 62
4
 10
56.6884
 20
-19.1496
 30
0.0
 11
56.6884
 21
-15.8079
 31
0.0
  0
LINE
  8
2
  5
72A
  6
HIDDEN
 62
4
 10
63.8505
 20
-18.615
 30
0.0
 11
63.8505
 21
-16.3426
 31
0.0
  0
LINE
  8
2
  5
72C
  6
HIDDEN
 62
4
 10
29.6582
 20
-20.5552
 30
0.0
 11
29.6582
 21
-14.4023
 31
0.0
  0
LINE
  8
2
  5
72E
  6
HIDDEN
 62
4
 10
25.0494
 20
-20.4181
 30
0.0
 11
25.0494
 21
-14.5394
 31
0.0
  0
LINE
  8
2
  5
730
  6
HIDDEN
 62
4
 10
33.5726
 20
-20.5517
 30
0.0
 11
33.5726
 21
-14.4058
 31
0.0
  0
LINE
  8
2
  5
732
  6
DASHDOT
 62
5
 10
28.2178
 20
-27.1268
 30
0.0
 11
28.2178
 21
-26.6603
 31
0.0
  0
LINE
  8
2
  5
734
  6
DASHDOT
 62
5
 10
24.2177
 20
-27.1268
 30
0.0
 11
24.2177
 21
-26.6603
 31
0.0
  0
LINE
  8
2
  5
736
  6
DASHDOT
 62
5
 10
24.6176
 20
-27.5269
 30
0.0
 11
27.8178
 21
-27.5269
 31
0.0
  0
LINE
  8
2
  5
738
  6
DASHDOT
 62
5
 10
24.6176
 20
-26.2603
 30
0.0
 11
27.8178
 21
-26.2603
 31
0.0
  0
ARC
  8
2
  5
73A
  6
DASHDOT
 62
5
 10
27.817759
 20
-27.126805
 30
0.0
 40
0.400014
 50
270.0
 51
0.0
  0
ARC
  8
2
  5
73C
  6
DASHDOT
 62
5
 10
27.817759
 20
-26.66029
 30
0.0
 40
0.400014
 50
0.0
 51
90.0
  0
ARC
  8
2
  5
73E
  6
DASHDOT
 62
5
 10
24.61765
 20
-26.66029
 30
0.0
 40
0.400014
 50
90.0
 51
180.0
  0
ARC
  8
2
  5
740
  6
DASHDOT
 62
5
 10
24.61765
 20
-27.126805
 30
0.0
 40
0.400014
 50
180.0
 51
270.0
  0
LINE
  8
2
  5
742
  6
CENTER
 62
1
 10
26.0383
 20
-8.6509
 30
0.0
 11
26.3902
 21
-8.6509
 31
0.0
  0
CIRCLE
  8
2
  5
744
  6
DASHDOT
 62
5
 10
26.217604
 20
-8.650877
 30
0.0
 40
0.124804
  0
LINE
  8
2
  5
746
  6
CENTER
 62
1
 10
26.2176
 20
-8.8339
 30
0.0
 11
26.2176
 21
-8.4678
 31
0.0
  0
LINE
  8
2
  5
748
  6
DASHDOT
 62
5
 10
28.2178
 20
-7.97
 30
0.0
 11
28.2178
 21
-7.5034
 31
0.0
  0
LINE
  8
2
  5
74A
  6
DASHDOT
 62
5
 10
24.2177
 20
-7.97
 30
0.0
 11
24.2177
 21
-7.5034
 31
0.0
  0
LINE
  8
2
  5
74C
  6
DASHDOT
 62
5
 10
24.6176
 20
-8.37
 30
0.0
 11
27.8178
 21
-8.37
 31
0.0
  0
LINE
  8
2
  5
74E
  6
DASHDOT
 62
5
 10
24.6176
 20
-7.1035
 30
0.0
 11
27.8178
 21
-7.1035
 31
0.0
  0
ARC
  8
2
  5
750
  6
DASHDOT
 62
5
 10
27.817759
 20
-7.969954
 30
0.0
 40
0.400014
 50
270.0
 51
0.0
  0
ARC
  8
2
  5
752
  6
DASHDOT
 62
5
 10
27.817759
 20
-7.503438
 30
0.0
 40
0.400014
 50
0.0
 51
90.0
  0
ARC
  8
2
  5
754
  6
DASHDOT
 62
5
 10
24.61765
 20
-7.503438
 30
0.0
 40
0.400014
 50
90.0
 51
180.0
  0
ARC
  8
2
  5
756
  6
DASHDOT
 62
5
 10
24.61765
 20
-7.969954
 30
0.0
 40
0.400014
 50
180.0
 51
270.0
  0
LINE
  8
2
  5
758
  6
HIDDEN
 62
4
 10
71.7591
 20
-17.1183
 30
0.0
 11
71.7591
 21
-17.8393
 31
0.0
  0
ARC
  8
2
  5
75A
  6
HIDDEN
 62
4
 10
31.492242
 20
-153.615662
 30
0.0
 40
138.975461
 50
86.0074305556
 51
97.1304833333
  0
ARC
  8
2
  5
75C
  6
HIDDEN
 62
4
 10
31.492242
 20
118.658107
 30
0.0
 40
138.975461
 50
262.8695166667
 51
273.9925694444
  0
INSERT
  8
2
  5
75E
  6
CONTINUOUS
 62
7
  2
ARROWD
 10
63.7958
 20
-16.1106
 30
0.0
 41
5.378416
 42
5.378416
 43
1.0
 70
1
 71
1
  0
INSERT
  8
2
  5
760
  6
CONTINUOUS
 62
7
  2
ARROWD
 10
44.0776
 20
-14.5754
 30
0.0
 41
5.378416
 42
5.378416
 43
1.0
 70
1
 71
1
  0
INSERT
  8
2
  5
762
  6
CONTINUOUS
 62
7
  2
ARROWD
 10
24.9833
 20
-14.1539
 30
0.0
 41
5.378416
 42
5.378416
 43
1.0
 70
1
 71
1
  0
INSERT
  8
2
  5
764
  6
CONTINUOUS
 62
7
  2
ARROWD
 10
56.6518
 20
-15.4957
 30
0.0
 41
5.378416
 42
5.378416
 43
1.0
 70
1
 71
1
  0
INSERT
  8
2
  5
766
  6
CONTINUOUS
 62
7
  2
ARROWD
 10
50.3141
 20
-14.9576
 30
0.0
 41
5.378416
 42
5.378416
 43
1.0
 70
1
 71
1
  0
ARC
  8
1
  5
768
  6
CONTINUOUS
 62
3
 10
9.045364
 20
-17.294121
 30
0.0
 40
65.744962
 50
349.3161666667
 51
359.4543083333
  0
ARC
  8
2
  5
76A
  6
CONTINUOUS
 62
3
 10
73.552377
 20
-29.463998
 30
0.0
 40
0.100003
 50
334.8560083333
 51
349.3161666667
  0
ARC
  8
2
  5
76C
  6
CONTINUOUS
 62
3
 10
73.552377
 20
-5.493557
 30
0.0
 40
0.100003
 50
10.6838333333
 51
25.1439916667
  0
POLYLINE
  8
1
  5
76E
  6
CONTINUOUS
 62
3
 10
0.0
 20
0.0
 30
0.0
 66
1
 70
0
  0
VERTEX
  8
1
  5
76F
  6
CONTINUOUS
 62
3
 10
41.194823
 20
-14.603372
 30
0.0
 42
-0.006078
  0
VERTEX
  8
1
  5
770
  6
CONTINUOUS
 62
3
 10
56.713425
 20
-15.621485
 30
0.0
 42
-0.006082
  0
VERTEX
  8
1
  5
771
  6
CONTINUOUS
 62
3
 10
72.198599
 20
-17.016296
 30
0.0
 42
-0.006082
  0
SEQEND
  8
1
  5
772
  0
ARC
  8
1
  5
774
  6
CONTINUOUS
 62
3
 10
70.812677
 20
-64.464342
 30
0.0
 40
47.468316
 50
82.3412166667
 51
88.3269472222
  0
POLYLINE
  8
2
  5
776
  6
HIDDEN
 62
4
 10
0.0
 20
0.0
 30
0.0
 66
1
 70
0
  0
VERTEX
  8
2
  5
777
  6
HIDDEN
 62
4
 10
41.187706
 20
-14.728173
 30
0.0
 42
-0.006712
  0
VERTEX
  8
2
  5
778
  6
HIDDEN
 62
4
 10
58.319254
 20
-15.873902
 30
0.0
 42
-0.006716
  0
VERTEX
  8
2
  5
779
  6
HIDDEN
 62
4
 10
75.408722
 20
-17.478776
 30
0.0
 42
-0.006716
  0
SEQEND
  8
2
  5
77A
  0
POLYLINE
  8
2
  5
77C
  6
HIDDEN
 62
4
 10
0.0
 20
0.0
 30
0.0
 66
1
 70
0
  0
VERTEX
  8
2
  5
77D
  6
HIDDEN
 62
4
 10
41.173471
 20
-14.977776
 30
0.0
 42
-0.006098
  0
VERTEX
  8
2
  5
77E
  6
HIDDEN
 62
4
 10
56.733146
 20
-15.999163
 30
0.0
 42
-0.006101
  0
VERTEX
  8
2
  5
77F
  6
HIDDEN
 62
4
 10
72.259161
 20
-17.399466
 30
0.0
 42
-0.006101
  0
SEQEND
  8
2
  5
780
  0
POLYLINE
  8
2
  5
782
  6
HIDDEN
 62
4
 10
0.0
 20
0.0
 30
0.0
 66
1
 70
0
  0
VERTEX
  8
2
  5
783
  6
HIDDEN
 62
4
 10
41.187706
 20
-20.229381
 30
0.0
 42
0.006712
  0
VERTEX
  8
2
  5
784
  6
HIDDEN
 62
4
 10
58.319254
 20
-19.083652
 30
0.0
 42
0.006716
  0
VERTEX
  8
2
  5
785
  6
HIDDEN
 62
4
 10
75.408722
 20
-17.478779
 30
0.0
 42
0.006716
  0
SEQEND
  8
2
  5
786
  0
POLYLINE
  8
2
  5
788
  6
HIDDEN
 62
4
 10
0.0
 20
0.0
 30
0.0
 66
1
 70
0
  0
VERTEX
  8
2
  5
789
  6
HIDDEN
 62
4
 10
41.173471
 20
-19.979778
 30
0.0
 42
0.006098
  0
VERTEX
  8
2
  5
78A
  6
HIDDEN
 62
4
 10
56.733146
 20
-18.958391
 30
0.0
 42
0.006101
  0
VERTEX
  8
2
  5
78B
  6
HIDDEN
 62
4
 10
72.259161
 20
-17.558089
 30
0.0
 42
0.006101
  0
SEQEND
  8
2
  5
78C
  0
ARC
  8
1
  5
78E
  6
CONTINUOUS
 62
3
 10
70.812677
 20
-64.464342
 30
0.0
 40
47.59332
 50
84.6046111111
 51
88.2583555556
  0
ARC
  8
1
  5
790
  6
CONTINUOUS
 62
3
 10
70.812677
 20
29.506787
 30
0.0
 40
47.59332
 50
271.7416444444
 51
275.3953888889
  0
LINE
  8
1
  5
792
  6
CONTINUOUS
 62
3
 10
73.1248
 20
-15.94
 30
0.0
 11
74.3248
 21
-16.0431
 31
0.0
  0
ARC
  8
1
  5
794
  6
CONTINUOUS
 62
3
 10
73.1592
 20
-15.541478
 30
0.0
 40
0.400014
 50
180.0
 51
265.0623944444
  0
ARC
  8
1
  5
796
  6
CONTINUOUS
 62
3
 10
74.35912
 20
-15.644621
 30
0.0
 40
0.400014
 50
265.0877777778
 51
1.7704166667
  0
LINE
  8
1
  5
798
  6
CONTINUOUS
 62
3
 10
73.1248
 20
-19.0175
 30
0.0
 11
74.3248
 21
-18.9144
 31
0.0
  0
ARC
  8
1
  5
79A
  6
CONTINUOUS
 62
3
 10
73.1592
 20
-19.416077
 30
0.0
 40
0.400014
 50
94.9376055556
 51
180.0
  0
ARC
  8
1
  5
79C
  6
CONTINUOUS
 62
3
 10
74.35912
 20
-19.312934
 30
0.0
 40
0.400014
 50
358.2295833333
 51
94.9122222222
  0
TEXT
  8
1
  5
79E
  6
CONTINUOUS
 62
3
 10
63.3879
 20
-13.901
 30
0.0
  1
F-5
 40
0.3329
 41
1.0
  7
STANDARD
  0
TEXT
  8
1
  5
7A0
  6
CONTINUOUS
 62
3
 10
24.6281
 20
-12.012
 30
0.0
  1
F-1
 40
0.3329
 41
1.0
  7
STANDARD
  0
TEXT
  8
1
  5
7A2
  6
CONTINUOUS
 62
3
 10
56.3428
 20
-13.2448
 30
0.0
  1
F-4
 40
0.3329
 41
1.0
  7
STANDARD
  0
TEXT
  8
1
  5
7A4
  6
CONTINUOUS
 62
3
 10
49.9939
 20
-12.7118
 30
0.0
  1
F-3
 40
0.3329
 41
1.0
  7
STANDARD
  0
TEXT
  8
1
  5
7A6
  6
CONTINUOUS
 62
3
 10
43.7679
 20
-12.3837
 30
0.0
  1
F-2
 40
0.3329
 41
1.0
  7
STANDARD
  0
CIRCLE
  8
2
  5
7A8
  6
CONTINUOUS
 62
3
 10
28.640309
 20
-17.736925
 30
0.0
 40
0.067957
  0
CIRCLE
  8
2
  5
7AA
  6
CONTINUOUS
 62
3
 10
26.641152
 20
-17.736925
 30
0.0
 40
0.067957
  0
CIRCLE
  8
2
  5
7AC
  6
CONTINUOUS
 62
3
 10
26.641152
 20
-17.22223
 30
0.0
 40
0.067957
  0
CIRCLE
  8
2
  5
7AE
  6
CONTINUOUS
 62
3
 10
28.640309
 20
-17.22223
 30
0.0
 40
0.067957
  0
ARC
  8
2
  5
7B0
  6
CONTINUOUS
 62
3
 10
27.782449
 20
-17.180426
 30
0.0
 40
0.100003
 50
308.3188722222
 51
353.8557472222
  0
ARC
  8
2
  5
7B2
  6
CONTINUOUS
 62
3
 10
28.255281
 20
-17.180426
 30
0.0
 40
0.100003
 50
186.1442527778
 51
231.6811277778
  0
ARC
  8
2
  5
7B4
  6
CONTINUOUS
 62
3
 10
27.782449
 20
-17.778729
 30
0.0
 40
0.100003
 50
6.1442527778
 51
51.6811277778
  0
ARC
  8
2
  5
7B6
  6
CONTINUOUS
 62
3
 10
28.255281
 20
-17.778729
 30
0.0
 40
0.100003
 50
128.3188722222
 51
173.8557472222
  0
CIRCLE
  8
2
  5
7B8
  6
CONTINUOUS
 62
3
 10
28.018865
 20
-18.131773
 30
0.0
 40
0.033974
  0
CIRCLE
  8
2
  5
7BA
  6
CONTINUOUS
 62
3
 10
28.018865
 20
-17.977235
 30
0.0
 40
0.033974
  0
CIRCLE
  8
2
  5
7BC
  6
CONTINUOUS
 62
3
 10
28.018865
 20
-17.818687
 30
0.0
 40
0.033974
  0
CIRCLE
  8
2
  5
7BE
  6
CONTINUOUS
 62
3
 10
28.018865
 20
-16.98192
 30
0.0
 40
0.033974
  0
CIRCLE
  8
2
  5
7C0
  6
CONTINUOUS
 62
3
 10
28.018865
 20
-17.140468
 30
0.0
 40
0.033974
  0
CIRCLE
  8
2
  5
7C2
  6
CONTINUOUS
 62
3
 10
28.018865
 20
-16.827381
 30
0.0
 40
0.033974
  0
TEXT
  8
2
  5
7C4
  6
CONTINUOUS
 62
3
 10
26.9909
 20
-17.3043
 30
0.0
  1
S-148
 40
0.0815
 50
270.0
 41
1.0
  7
STANDARD
 72
4
 11
27.0317
 21
-17.4708
 31
0.0
  0
TEXT
  8
2
  5
7C6
  6
CONTINUOUS
 62
3
 10
27.1988
 20
-17.244
 30
0.0
  1
FUTABA
 40
0.0815
 50
270.0
 41
1.0
  7
STANDARD
 72
4
 11
27.2396
 21
-17.4714
 31
0.0
  0
LINE
  8
2
  5
7C8
  6
CONTINUOUS
 62
3
 10
26.9063
 20
-17.0894
 30
0.0
 11
27.3756
 21
-17.0894
 31
0.0
  0
LINE
  8
2
  5
7CA
  6
CONTINUOUS
 62
3
 10
26.9063
 20
-17.8435
 30
0.0
 11
26.9063
 21
-17.0894
 31
0.0
  0
LINE
  8
2
  5
7CC
  6
CONTINUOUS
 62
3
 10
27.3756
 20
-17.8435
 30
0.0
 11
26.9063
 21
-17.8435
 31
0.0
  0
LINE
  8
2
  5
7CE
  6
CONTINUOUS
 62
3
 10
27.3756
 20
-17.0894
 30
0.0
 11
27.3756
 21
-17.8435
 31
0.0
  0
ARC
  8
2
  5
7D0
  6
CONTINUOUS
 62
3
 10
28.018865
 20
-17.479577
 30
0.0
 40
0.28129
 50
308.3188722222
 51
51.681125
  0
LINE
  8
2
  5
7D2
  6
CONTINUOUS
 62
3
 10
28.1397
 20
-17.0405
 30
0.0
 11
28.7688
 21
-17.0405
 31
0.0
  0
LINE
  8
2
  5
7D4
  6
CONTINUOUS
 62
3
 10
27.8972
 20
-17.9101
 30
0.0
 11
26.5188
 21
-17.9101
 31
0.0
  0
LINE
  8
2
  5
7D6
  6
CONTINUOUS
 62
3
 10
28.1167
 20
-18.1318
 30
0.0
 11
28.1559
 21
-17.7681
 31
0.0
  0
LINE
  8
2
  5
7D8
  6
CONTINUOUS
 62
3
 10
27.921
 20
-18.1318
 30
0.0
 11
27.8818
 21
-17.7681
 31
0.0
  0
ARC
  8
2
  5
7DA
  6
CONTINUOUS
 62
3
 10
28.018865
 20
-18.131773
 30
0.0
 40
0.097829
 50
180.0
 51
360.0
  0
LINE
  8
2
  5
7DC
  6
CONTINUOUS
 62
3
 10
27.921
 20
-16.8273
 30
0.0
 11
27.8818
 21
-17.1912
 31
0.0
  0
LINE
  8
2
  5
7DE
  6
CONTINUOUS
 62
3
 10
28.1167
 20
-16.8273
 30
0.0
 11
28.1559
 21
-17.1912
 31
0.0
  0
ARC
  8
2
  5
7E0
  6
CONTINUOUS
 62
3
 10
28.018865
 20
-16.827381
 30
0.0
 40
0.097829
 50
360.0
 51
180.0
  0
ARC
  8
2
  5
7E2
  6
CONTINUOUS
 62
3
 10
28.018865
 20
-17.479577
 30
0.0
 40
0.28129
 50
128.3188722222
 51
231.681125
  0
LINE
  8
2
  5
7E4
  6
CONTINUOUS
 62
3
 10
28.0189
 20
-17.4796
 30
0.0
 11
28.0189
 21
-17.5471
 31
0.0
  0
LINE
  8
2
  5
7E6
  6
CONTINUOUS
 62
3
 10
28.0189
 20
-17.4796
 30
0.0
 11
27.9513
 21
-17.4796
 31
0.0
  0
LINE
  8
2
  5
7E8
  6
CONTINUOUS
 62
3
 10
28.0189
 20
-17.4796
 30
0.0
 11
28.0189
 21
-17.412
 31
0.0
  0
LINE
  8
2
  5
7EA
  6
CONTINUOUS
 62
3
 10
28.0189
 20
-17.4796
 30
0.0
 11
28.0864
 21
-17.4796
 31
0.0
  0
CIRCLE
  8
2
  5
7EC
  6
CONTINUOUS
 62
3
 10
28.018865
 20
-17.479577
 30
0.0
 40
0.131647
  0
LINE
  8
2
  5
7EE
  6
CONTINUOUS
 62
3
 10
26.7689
 20
-17.0405
 30
0.0
 11
26.7689
 21
-17.9101
 31
0.0
  0
LINE
  8
2
  5
7F0
  6
CONTINUOUS
 62
3
 10
28.519
 20
-17.0405
 30
0.0
 11
28.519
 21
-17.9101
 31
0.0
  0
LINE
  8
2
  5
7F2
  6
CONTINUOUS
 62
3
 10
26.5188
 20
-17.0405
 30
0.0
 11
27.8981
 21
-17.0405
 31
0.0
  0
LINE
  8
2
  5
7F4
  6
CONTINUOUS
 62
3
 10
26.5188
 20
-17.9101
 30
0.0
 11
26.5188
 21
-17.0405
 31
0.0
  0
LINE
  8
2
  5
7F6
  6
CONTINUOUS
 62
3
 10
28.7688
 20
-17.9101
 30
0.0
 11
28.1405
 21
-17.9101
 31
0.0
  0
LINE
  8
2
  5
7F8
  6
CONTINUOUS
 62
3
 10
28.7688
 20
-17.0405
 30
0.0
 11
28.7688
 21
-17.9101
 31
0.0
  0
CIRCLE
  8
2
  5
7FA
  6
CONTINUOUS
 62
3
 10
28.640309
 20
-16.082569
 30
0.0
 40
0.067957
  0
CIRCLE
  8
2
  5
7FC
  6
CONTINUOUS
 62
3
 10
26.641152
 20
-16.082569
 30
0.0
 40
0.067957
  0
CIRCLE
  8
2
  5
7FE
  6
CONTINUOUS
 62
3
 10
26.641152
 20
-15.567874
 30
0.0
 40
0.067957
  0
CIRCLE
  8
2
  5
800
  6
CONTINUOUS
 62
3
 10
28.640309
 20
-15.567874
 30
0.0
 40
0.067957
  0
ARC
  8
2
  5
802
  6
CONTINUOUS
 62
3
 10
27.782449
 20
-15.526069
 30
0.0
 40
0.100003
 50
308.3188722222
 51
353.8557472222
  0
ARC
  8
2
  5
804
  6
CONTINUOUS
 62
3
 10
28.255281
 20
-15.526069
 30
0.0
 40
0.100003
 50
186.1442527778
 51
231.6811277778
  0
ARC
  8
2
  5
806
  6
CONTINUOUS
 62
3
 10
27.782449
 20
-16.124373
 30
0.0
 40
0.100003
 50
6.1442527778
 51
51.6811277778
  0
ARC
  8
2
  5
808
  6
CONTINUOUS
 62
3
 10
28.255281
 20
-16.124373
 30
0.0
 40
0.100003
 50
128.3188722222
 51
173.8557472222
  0
CIRCLE
  8
2
  5
80A
  6
CONTINUOUS
 62
3
 10
28.018865
 20
-16.477417
 30
0.0
 40
0.033974
  0
CIRCLE
  8
2
  5
80C
  6
CONTINUOUS
 62
3
 10
28.018865
 20
-16.322879
 30
0.0
 40
0.033974
  0
CIRCLE
  8
2
  5
80E
  6
CONTINUOUS
 62
3
 10
28.018865
 20
-16.164331
 30
0.0
 40
0.033974
  0
CIRCLE
  8
2
  5
810
  6
CONTINUOUS
 62
3
 10
28.018865
 20
-15.327564
 30
0.0
 40
0.033974
  0
CIRCLE
  8
2
  5
812
  6
CONTINUOUS
 62
3
 10
28.018865
 20
-15.486111
 30
0.0
 40
0.033974
  0
CIRCLE
  8
2
  5
814
  6
CONTINUOUS
 62
3
 10
28.018865
 20
-15.173025
 30
0.0
 40
0.033974
  0
TEXT
  8
2
  5
816
  6
CONTINUOUS
 62
3
 10
26.9909
 20
-15.6499
 30
0.0
  1
S-148
 40
0.0815
 50
270.0
 41
1.0
  7
STANDARD
 72
4
 11
27.0317
 21
-15.8164
 31
0.0
  0
TEXT
  8
2
  5
818
  6
CONTINUOUS
 62
3
 10
27.1988
 20
-15.5896
 30
0.0
  1
FUTABA
 40
0.0815
 50
270.0
 41
1.0
  7
STANDARD
 72
4
 11
27.2396
 21
-15.817
 31
0.0
  0
LINE
  8
2
  5
81A
  6
CONTINUOUS
 62
3
 10
26.9063
 20
-15.4351
 30
0.0
 11
27.3756
 21
-15.4351
 31
0.0
  0
LINE
  8
2
  5
81C
  6
CONTINUOUS
 62
3
 10
26.9063
 20
-16.1892
 30
0.0
 11
26.9063
 21
-15.4351
 31
0.0
  0
LINE
  8
2
  5
81E
  6
CONTINUOUS
 62
3
 10
27.3756
 20
-16.1892
 30
0.0
 11
26.9063
 21
-16.1892
 31
0.0
  0
LINE
  8
2
  5
820
  6
CONTINUOUS
 62
3
 10
27.3756
 20
-15.4351
 30
0.0
 11
27.3756
 21
-16.1892
 31
0.0
  0
ARC
  8
2
  5
822
  6
CONTINUOUS
 62
3
 10
28.018865
 20
-15.825221
 30
0.0
 40
0.28129
 50
308.3188722222
 51
51.681125
  0
LINE
  8
2
  5
824
  6
CONTINUOUS
 62
3
 10
28.1397
 20
-15.3861
 30
0.0
 11
28.7688
 21
-15.3861
 31
0.0
  0
LINE
  8
2
  5
826
  6
CONTINUOUS
 62
3
 10
27.8972
 20
-16.2557
 30
0.0
 11
26.5188
 21
-16.2557
 31
0.0
  0
LINE
  8
2
  5
828
  6
CONTINUOUS
 62
3
 10
28.1167
 20
-16.4774
 30
0.0
 11
28.1559
 21
-16.1137
 31
0.0
  0
LINE
  8
2
  5
82A
  6
CONTINUOUS
 62
3
 10
27.921
 20
-16.4774
 30
0.0
 11
27.8818
 21
-16.1137
 31
0.0
  0
ARC
  8
2
  5
82C
  6
CONTINUOUS
 62
3
 10
28.018865
 20
-16.477417
 30
0.0
 40
0.097829
 50
180.0
 51
360.0
  0
LINE
  8
2
  5
82E
  6
CONTINUOUS
 62
3
 10
27.921
 20
-15.173
 30
0.0
 11
27.8818
 21
-15.5368
 31
0.0
  0
LINE
  8
2
  5
830
  6
CONTINUOUS
 62
3
 10
28.1167
 20
-15.173
 30
0.0
 11
28.1559
 21
-15.5368
 31
0.0
  0
ARC
  8
2
  5
832
  6
CONTINUOUS
 62
3
 10
28.018865
 20
-15.173025
 30
0.0
 40
0.097829
 50
360.0
 51
180.0
  0
ARC
  8
2
  5
834
  6
CONTINUOUS
 62
3
 10
28.018865
 20
-15.825221
 30
0.0
 40
0.28129
 50
128.3188722222
 51
231.681125
  0
LINE
  8
2
  5
836
  6
CONTINUOUS
 62
3
 10
28.0189
 20
-15.8253
 30
0.0
 11
28.0189
 21
-15.8928
 31
0.0
  0
LINE
  8
2
  5
838
  6
CONTINUOUS
 62
3
 10
28.0189
 20
-15.8253
 30
0.0
 11
27.9513
 21
-15.8253
 31
0.0
  0
LINE
  8
2
  5
83A
  6
CONTINUOUS
 62
3
 10
28.0189
 20
-15.8253
 30
0.0
 11
28.0189
 21
-15.7577
 31
0.0
  0
LINE
  8
2
  5
83C
  6
CONTINUOUS
 62
3
 10
28.0189
 20
-15.8253
 30
0.0
 11
28.0864
 21
-15.8253
 31
0.0
  0
CIRCLE
  8
2
  5
83E
  6
CONTINUOUS
 62
3
 10
28.018865
 20
-15.825221
 30
0.0
 40
0.131647
  0
LINE
  8
2
  5
840
  6
CONTINUOUS
 62
3
 10
26.7689
 20
-15.3861
 30
0.0
 11
26.7689
 21
-16.2557
 31
0.0
  0
LINE
  8
2
  5
842
  6
CONTINUOUS
 62
3
 10
28.519
 20
-15.3861
 30
0.0
 11
28.519
 21
-16.2557
 31
0.0
  0
LINE
  8
2
  5
844
  6
CONTINUOUS
 62
3
 10
26.5188
 20
-15.3861
 30
0.0
 11
27.8981
 21
-15.3861
 31
0.0
  0
LINE
  8
2
  5
846
  6
CONTINUOUS
 62
3
 10
26.5188
 20
-16.2557
 30
0.0
 11
26.5188
 21
-15.3861
 31
0.0
  0
LINE
  8
2
  5
848
  6
CONTINUOUS
 62
3
 10
28.7688
 20
-16.2557
 30
0.0
 11
28.1405
 21
-16.2557
 31
0.0
  0
LINE
  8
2
  5
84A
  6
CONTINUOUS
 62
3
 10
28.7688
 20
-15.3861
 30
0.0
 11
28.7688
 21
-16.2557
 31
0.0
  0
CIRCLE
  8
2
  5
84C
  6
CONTINUOUS
 62
3
 10
28.640309
 20
-18.874986
 30
0.0
 40
0.067957
  0
CIRCLE
  8
2
  5
84E
  6
CONTINUOUS
 62
3
 10
26.641152
 20
-18.874986
 30
0.0
 40
0.067957
  0
CIRCLE
  8
2
  5
850
  6
CONTINUOUS
 62
3
 10
26.641152
 20
-19.389681
 30
0.0
 40
0.067957
  0
CIRCLE
  8
2
  5
852
  6
CONTINUOUS
 62
3
 10
28.640309
 20
-19.389681
 30
0.0
 40
0.067957
  0
ARC
  8
2
  5
854
  6
CONTINUOUS
 62
3
 10
27.782449
 20
-19.431485
 30
0.0
 40
0.100003
 50
6.1442527778
 51
51.6811277778
  0
ARC
  8
2
  5
856
  6
CONTINUOUS
 62
3
 10
28.255281
 20
-19.431485
 30
0.0
 40
0.100003
 50
128.3188722222
 51
173.8557472222
  0
ARC
  8
2
  5
858
  6
CONTINUOUS
 62
3
 10
27.782449
 20
-18.833182
 30
0.0
 40
0.100003
 50
308.3188722222
 51
353.8557472222
  0
ARC
  8
2
  5
85A
  6
CONTINUOUS
 62
3
 10
28.255281
 20
-18.833182
 30
0.0
 40
0.100003
 50
186.1442527778
 51
231.6811277778
  0
CIRCLE
  8
2
  5
85C
  6
CONTINUOUS
 62
3
 10
28.018865
 20
-18.480137
 30
0.0
 40
0.033974
  0
CIRCLE
  8
2
  5
85E
  6
CONTINUOUS
 62
3
 10
28.018865
 20
-18.634676
 30
0.0
 40
0.033974
  0
CIRCLE
  8
2
  5
860
  6
CONTINUOUS
 62
3
 10
28.018865
 20
-18.793224
 30
0.0
 40
0.033974
  0
CIRCLE
  8
2
  5
862
  6
CONTINUOUS
 62
3
 10
28.018865
 20
-19.629991
 30
0.0
 40
0.033974
  0
CIRCLE
  8
2
  5
864
  6
CONTINUOUS
 62
3
 10
28.018865
 20
-19.471443
 30
0.0
 40
0.033974
  0
CIRCLE
  8
2
  5
866
  6
CONTINUOUS
 62
3
 10
28.018865
 20
-19.78453
 30
0.0
 40
0.033974
  0
TEXT
  8
2
  5
868
  6
CONTINUOUS
 62
3
 10
26.9909
 20
-18.9769
 30
0.0
  1
S-148
 40
0.0815
 50
270.0
 41
1.0
  7
STANDARD
 72
4
 11
27.0317
 21
-19.1434
 31
0.0
  0
TEXT
  8
2
  5
86A
  6
CONTINUOUS
 62
3
 10
27.1988
 20
-18.9167
 30
0.0
  1
FUTABA
 40
0.0815
 50
270.0
 41
1.0
  7
STANDARD
 72
4
 11
27.2396
 21
-19.1441
 31
0.0
  0
LINE
  8
2
  5
86C
  6
CONTINUOUS
 62
3
 10
26.9063
 20
-19.5226
 30
0.0
 11
27.3756
 21
-19.5226
 31
0.0
  0
LINE
  8
2
  5
86E
  6
CONTINUOUS
 62
3
 10
26.9063
 20
-18.7683
 30
0.0
 11
26.9063
 21
-19.5226
 31
0.0
  0
LINE
  8
2
  5
870
  6
CONTINUOUS
 62
3
 10
27.3756
 20
-18.7683
 30
0.0
 11
26.9063
 21
-18.7683
 31
0.0
  0
LINE
  8
2
  5
872
  6
CONTINUOUS
 62
3
 10
27.3756
 20
-19.5226
 30
0.0
 11
27.3756
 21
-18.7683
 31
0.0
  0
ARC
  8
2
  5
874
  6
CONTINUOUS
 62
3
 10
28.018865
 20
-19.132334
 30
0.0
 40
0.28129
 50
308.318875
 51
51.6811277778
  0
LINE
  8
2
  5
876
  6
CONTINUOUS
 62
3
 10
28.1397
 20
-19.5715
 30
0.0
 11
28.7688
 21
-19.5715
 31
0.0
  0
LINE
  8
2
  5
878
  6
CONTINUOUS
 62
3
 10
27.8972
 20
-18.7019
 30
0.0
 11
26.5188
 21
-18.7019
 31
0.0
  0
LINE
  8
2
  5
87A
  6
CONTINUOUS
 62
3
 10
28.1167
 20
-18.4801
 30
0.0
 11
28.1559
 21
-18.844
 31
0.0
  0
LINE
  8
2
  5
87C
  6
CONTINUOUS
 62
3
 10
27.921
 20
-18.4801
 30
0.0
 11
27.8818
 21
-18.844
 31
0.0
  0
ARC
  8
2
  5
87E
  6
CONTINUOUS
 62
3
 10
28.018865
 20
-18.480137
 30
0.0
 40
0.097829
 50
0.0
 51
180.0
  0
LINE
  8
2
  5
880
  6
CONTINUOUS
 62
3
 10
27.921
 20
-19.7846
 30
0.0
 11
27.8818
 21
-19.4208
 31
0.0
  0
LINE
  8
2
  5
882
  6
CONTINUOUS
 62
3
 10
28.1167
 20
-19.7846
 30
0.0
 11
28.1559
 21
-19.4208
 31
0.0
  0
ARC
  8
2
  5
884
  6
CONTINUOUS
 62
3
 10
28.018865
 20
-19.78453
 30
0.0
 40
0.097829
 50
180.0
 51
360.0
  0
ARC
  8
2
  5
886
  6
CONTINUOUS
 62
3
 10
28.018865
 20
-19.132334
 30
0.0
 40
0.28129
 50
128.318875
 51
231.6811277778
  0
LINE
  8
2
  5
888
  6
CONTINUOUS
 62
3
 10
28.0189
 20
-19.1324
 30
0.0
 11
28.0189
 21
-19.0648
 31
0.0
  0
LINE
  8
2
  5
88A
  6
CONTINUOUS
 62
3
 10
28.0189
 20
-19.1324
 30
0.0
 11
27.9513
 21
-19.1324
 31
0.0
  0
LINE
  8
2
  5
88C
  6
CONTINUOUS
 62
3
 10
28.0189
 20
-19.1324
 30
0.0
 11
28.0189
 21
-19.2
 31
0.0
  0
LINE
  8
2
  5
88E
  6
CONTINUOUS
 62
3
 10
28.0189
 20
-19.1324
 30
0.0
 11
28.0864
 21
-19.1324
 31
0.0
  0
CIRCLE
  8
2
  5
890
  6
CONTINUOUS
 62
3
 10
28.018865
 20
-19.132334
 30
0.0
 40
0.131647
  0
LINE
  8
2
  5
892
  6
CONTINUOUS
 62
3
 10
26.7689
 20
-19.5715
 30
0.0
 11
26.7689
 21
-18.7019
 31
0.0
  0
LINE
  8
2
  5
894
  6
CONTINUOUS
 62
3
 10
28.519
 20
-19.5715
 30
0.0
 11
28.519
 21
-18.7019
 31
0.0
  0
LINE
  8
2
  5
896
  6
CONTINUOUS
 62
3
 10
26.5188
 20
-19.5715
 30
0.0
 11
27.8981
 21
-19.5715
 31
0.0
  0
LINE
  8
2
  5
898
  6
CONTINUOUS
 62
3
 10
26.5188
 20
-18.7019
 30
0.0
 11
26.5188
 21
-19.5715
 31
0.0
  0
LINE
  8
2
  5
89A
  6
CONTINUOUS
 62
3
 10
28.7688
 20
-18.7019
 30
0.0
 11
28.1405
 21
-18.7019
 31
0.0
  0
LINE
  8
2
  5
89C
  6
CONTINUOUS
 62
3
 10
28.7688
 20
-19.5715
 30
0.0
 11
28.7688
 21
-18.7019
 31
0.0
  0
CIRCLE
  8
2
  5
89E
  6
CONTINUOUS
 62
3
 10
34.248854
 20
-26.606726
 30
0.0
 40
0.067957
  0
CIRCLE
  8
2
  5
8A0
  6
CONTINUOUS
 62
3
 10
36.248012
 20
-26.606726
 30
0.0
 40
0.067957
  0
CIRCLE
  8
2
  5
8A2
  6
CONTINUOUS
 62
3
 10
36.248012
 20
-26.092031
 30
0.0
 40
0.067957
  0
CIRCLE
  8
2
  5
8A4
  6
CONTINUOUS
 62
3
 10
34.248854
 20
-26.092031
 30
0.0
 40
0.067957
  0
ARC
  8
2
  5
8A6
  6
CONTINUOUS
 62
3
 10
35.106714
 20
-26.053327
 30
0.0
 40
0.100003
 50
186.1442527778
 51
231.6811277778
  0
ARC
  8
2
  5
8A8
  6
CONTINUOUS
 62
3
 10
34.633882
 20
-26.053327
 30
0.0
 40
0.100003
 50
308.3188722222
 51
353.8557472222
  0
CIRCLE
  8
2
  5
8AA
  6
CONTINUOUS
 62
3
 10
34.870298
 20
-25.700283
 30
0.0
 40
0.033974
  0
CIRCLE
  8
2
  5
8AC
  6
CONTINUOUS
 62
3
 10
34.870298
 20
-25.854822
 30
0.0
 40
0.033974
  0
CIRCLE
  8
2
  5
8AE
  6
CONTINUOUS
 62
3
 10
34.870298
 20
-26.013369
 30
0.0
 40
0.033974
  0
TEXT
  8
2
  5
8B0
  6
CONTINUOUS
 62
3
 10
35.8983
 20
-26.5048
 30
0.0
  1
S-148
 40
0.0815
 50
90.0
 41
1.0
  7
STANDARD
 72
4
 11
35.8575
 21
-26.3383
 31
0.0
  0
TEXT
  8
2
  5
8B2
  6
CONTINUOUS
 62
3
 10
35.6903
 20
-26.565
 30
0.0
  1
FUTABA
 40
0.0815
 50
90.0
 41
1.0
  7
STANDARD
 72
4
 11
35.6495
 21
-26.3376
 31
0.0
  0
LINE
  8
2
  5
8B4
  6
CONTINUOUS
 62
3
 10
35.9829
 20
-25.9592
 30
0.0
 11
35.5136
 21
-25.9592
 31
0.0
  0
LINE
  8
2
  5
8B6
  6
CONTINUOUS
 62
3
 10
35.9829
 20
-26.7133
 30
0.0
 11
35.9829
 21
-25.9592
 31
0.0
  0
LINE
  8
2
  5
8B8
  6
CONTINUOUS
 62
3
 10
35.5136
 20
-26.7133
 30
0.0
 11
35.9829
 21
-26.7133
 31
0.0
  0
LINE
  8
2
  5
8BA
  6
CONTINUOUS
 62
3
 10
35.5136
 20
-25.9592
 30
0.0
 11
35.5136
 21
-26.7133
 31
0.0
  0
LINE
  8
2
  5
8BC
  6
CONTINUOUS
 62
3
 10
34.1202
 20
-26.7799
 30
0.0
 11
36.3704
 21
-26.7799
 31
0.0
  0
LINE
  8
2
  5
8BE
  6
CONTINUOUS
 62
3
 10
34.7725
 20
-25.7003
 30
0.0
 11
34.7333
 21
-26.0641
 31
0.0
  0
LINE
  8
2
  5
8C0
  6
CONTINUOUS
 62
3
 10
34.968
 20
-25.7003
 30
0.0
 11
35.0073
 21
-26.0641
 31
0.0
  0
ARC
  8
2
  5
8C2
  6
CONTINUOUS
 62
3
 10
34.870298
 20
-25.700283
 30
0.0
 40
0.097829
 50
360.0
 51
180.0
  0
LINE
  8
2
  5
8C4
  6
CONTINUOUS
 62
3
 10
36.1204
 20
-25.9103
 30
0.0
 11
36.1204
 21
-26.7799
 31
0.0
  0
LINE
  8
2
  5
8C6
  6
CONTINUOUS
 62
3
 10
34.3703
 20
-25.9103
 30
0.0
 11
34.3703
 21
-26.7799
 31
0.0
  0
LINE
  8
2
  5
8C8
  6
CONTINUOUS
 62
3
 10
36.3704
 20
-26.7799
 30
0.0
 11
36.3704
 21
-25.9103
 31
0.0
  0
LINE
  8
2
  5
8CA
  6
CONTINUOUS
 62
3
 10
34.1202
 20
-25.9103
 30
0.0
 11
34.1202
 21
-26.7799
 31
0.0
  0
LINE
  8
1
  5
8CC
  6
CENTER
 62
1
 10
33.6824
 20
-28.9082
 30
0.0
 11
33.6824
 21
-25.2061
 31
0.0
  0
LINE
  8
1
  5
8CE
  6
CENTER
 62
1
 10
33.8075
 20
-28.8947
 30
0.0
 11
33.8075
 21
-25.2196
 31
0.0
  0
CIRCLE
  8
2
  5
8D0
  6
CONTINUOUS
 62
3
 10
34.392359
 20
-7.642304
 30
0.0
 40
0.067957
  0
CIRCLE
  8
2
  5
8D2
  6
CONTINUOUS
 62
3
 10
36.391517
 20
-7.642304
 30
0.0
 40
0.067957
  0
CIRCLE
  8
2
  5
8D4
  6
CONTINUOUS
 62
3
 10
36.391517
 20
-8.156999
 30
0.0
 40
0.067957
  0
CIRCLE
  8
2
  5
8D6
  6
CONTINUOUS
 62
3
 10
34.392359
 20
-8.156999
 30
0.0
 40
0.067957
  0
ARC
  8
2
  5
8D8
  6
CONTINUOUS
 62
3
 10
35.250219
 20
-8.198804
 30
0.0
 40
0.100003
 50
128.3188722222
 51
173.8557472222
  0
ARC
  8
2
  5
8DA
  6
CONTINUOUS
 62
3
 10
34.777387
 20
-8.198804
 30
0.0
 40
0.100003
 50
6.1442527778
 51
51.6811277778
  0
ARC
  8
2
  5
8DC
  6
CONTINUOUS
 62
3
 10
35.250219
 20
-7.6005
 30
0.0
 40
0.100003
 50
186.1442527778
 51
231.6811277778
  0
ARC
  8
2
  5
8DE
  6
CONTINUOUS
 62
3
 10
34.777387
 20
-7.6005
 30
0.0
 40
0.100003
 50
308.3188722222
 51
353.8557472222
  0
CIRCLE
  8
2
  5
8E0
  6
CONTINUOUS
 62
3
 10
35.013803
 20
-7.247456
 30
0.0
 40
0.033974
  0
CIRCLE
  8
2
  5
8E2
  6
CONTINUOUS
 62
3
 10
35.013803
 20
-7.401994
 30
0.0
 40
0.033974
  0
CIRCLE
  8
2
  5
8E4
  6
CONTINUOUS
 62
3
 10
35.013803
 20
-7.560542
 30
0.0
 40
0.033974
  0
CIRCLE
  8
2
  5
8E6
  6
CONTINUOUS
 62
3
 10
35.013803
 20
-8.397309
 30
0.0
 40
0.033974
  0
CIRCLE
  8
2
  5
8E8
  6
CONTINUOUS
 62
3
 10
35.013803
 20
-8.238761
 30
0.0
 40
0.033974
  0
CIRCLE
  8
2
  5
8EA
  6
CONTINUOUS
 62
3
 10
35.013803
 20
-8.551848
 30
0.0
 40
0.033974
  0
TEXT
  8
2
  5
8EC
  6
CONTINUOUS
 62
3
 10
36.0417
 20
-8.075
 30
0.0
  1
S-148
 40
0.0815
 50
90.0
 41
1.0
  7
STANDARD
 72
4
 11
36.0009
 21
-7.9085
 31
0.0
  0
TEXT
  8
2
  5
8EE
  6
CONTINUOUS
 62
3
 10
35.8338
 20
-8.1353
 30
0.0
  1
FUTABA
 40
0.0815
 50
90.0
 41
1.0
  7
STANDARD
 72
4
 11
35.793
 21
-7.9079
 31
0.0
  0
LINE
  8
2
  5
8F0
  6
CONTINUOUS
 62
3
 10
36.1264
 20
-8.2899
 30
0.0
 11
35.6571
 21
-8.2899
 31
0.0
  0
LINE
  8
2
  5
8F2
  6
CONTINUOUS
 62
3
 10
36.1264
 20
-7.5356
 30
0.0
 11
36.1264
 21
-8.2899
 31
0.0
  0
LINE
  8
2
  5
8F4
  6
CONTINUOUS
 62
3
 10
35.6571
 20
-7.5356
 30
0.0
 11
36.1264
 21
-7.5356
 31
0.0
  0
LINE
  8
2
  5
8F6
  6
CONTINUOUS
 62
3
 10
35.6571
 20
-8.2899
 30
0.0
 11
35.6571
 21
-7.5356
 31
0.0
  0
ARC
  8
2
  5
8F8
  6
CONTINUOUS
 62
3
 10
35.013803
 20
-7.899652
 30
0.0
 40
0.28129
 50
128.3188722222
 51
231.681125
  0
LINE
  8
2
  5
8FA
  6
CONTINUOUS
 62
3
 10
34.893
 20
-8.3388
 30
0.0
 11
34.2637
 21
-8.3388
 31
0.0
  0
LINE
  8
2
  5
8FC
  6
CONTINUOUS
 62
3
 10
35.1355
 20
-7.4691
 30
0.0
 11
36.5139
 21
-7.4691
 31
0.0
  0
LINE
  8
2
  5
8FE
  6
CONTINUOUS
 62
3
 10
34.916
 20
-7.2474
 30
0.0
 11
34.8768
 21
-7.6112
 31
0.0
  0
LINE
  8
2
  5
900
  6
CONTINUOUS
 62
3
 10
35.1115
 20
-7.2474
 30
0.0
 11
35.1508
 21
-7.6112
 31
0.0
  0
ARC
  8
2
  5
902
  6
CONTINUOUS
 62
3
 10
35.013803
 20
-7.247456
 30
0.0
 40
0.097829
 50
360.0
 51
180.0
  0
LINE
  8
2
  5
904
  6
CONTINUOUS
 62
3
 10
35.1115
 20
-8.5519
 30
0.0
 11
35.1508
 21
-8.1881
 31
0.0
  0
LINE
  8
2
  5
906
  6
CONTINUOUS
 62
3
 10
34.916
 20
-8.5519
 30
0.0
 11
34.8768
 21
-8.1881
 31
0.0
  0
ARC
  8
2
  5
908
  6
CONTINUOUS
 62
3
 10
35.013803
 20
-8.551848
 30
0.0
 40
0.097829
 50
180.0
 51
360.0
  0
ARC
  8
2
  5
90A
  6
CONTINUOUS
 62
3
 10
35.013803
 20
-7.899652
 30
0.0
 40
0.28129
 50
308.3188722222
 51
51.681125
  0
LINE
  8
2
  5
90C
  6
CONTINUOUS
 62
3
 10
35.0138
 20
-7.8997
 30
0.0
 11
35.0138
 21
-7.8321
 31
0.0
  0
LINE
  8
2
  5
90E
  6
CONTINUOUS
 62
3
 10
35.0138
 20
-7.8997
 30
0.0
 11
35.0814
 21
-7.8997
 31
0.0
  0
LINE
  8
2
  5
910
  6
CONTINUOUS
 62
3
 10
35.0138
 20
-7.8997
 30
0.0
 11
35.0138
 21
-7.9672
 31
0.0
  0
LINE
  8
2
  5
912
  6
CONTINUOUS
 62
3
 10
35.0138
 20
-7.8997
 30
0.0
 11
34.9462
 21
-7.8997
 31
0.0
  0
CIRCLE
  8
2
  5
914
  6
CONTINUOUS
 62
3
 10
35.013803
 20
-7.899652
 30
0.0
 40
0.131647
  0
LINE
  8
2
  5
916
  6
CONTINUOUS
 62
3
 10
36.2639
 20
-8.3388
 30
0.0
 11
36.2639
 21
-7.4691
 31
0.0
  0
LINE
  8
2
  5
918
  6
CONTINUOUS
 62
3
 10
34.5138
 20
-8.3388
 30
0.0
 11
34.5138
 21
-7.4691
 31
0.0
  0
LINE
  8
2
  5
91A
  6
CONTINUOUS
 62
3
 10
36.5139
 20
-8.3388
 30
0.0
 11
35.1346
 21
-8.3388
 31
0.0
  0
LINE
  8
2
  5
91C
  6
CONTINUOUS
 62
3
 10
36.5139
 20
-7.4691
 30
0.0
 11
36.5139
 21
-8.3388
 31
0.0
  0
LINE
  8
2
  5
91E
  6
CONTINUOUS
 62
3
 10
34.2637
 20
-7.4691
 30
0.0
 11
34.892
 21
-7.4691
 31
0.0
  0
LINE
  8
2
  5
920
  6
CONTINUOUS
 62
3
 10
34.2637
 20
-8.3388
 30
0.0
 11
34.2637
 21
-7.4691
 31
0.0
  0
LINE
  8
1
  5
922
  6
CENTER
 62
1
 10
33.6824
 20
-6.0493
 30
0.0
 11
33.6824
 21
-9.7513
 31
0.0
  0
LINE
  8
1
  5
924
  6
CENTER
 62
1
 10
33.8075
 20
-6.0628
 30
0.0
 11
33.8075
 21
-9.7378
 31
0.0
  0
LINE
  8
1
  5
926
  6
HIDDEN
 62
4
 10
28.5362
 20
-14.6717
 30
0.0
 11
28.5362
 21
-15.3861
 31
0.0
  0
LINE
  8
1
  5
928
  6
HIDDEN
 62
4
 10
28.5362
 20
-16.2557
 30
0.0
 11
28.5362
 21
-17.0405
 31
0.0
  0
LINE
  8
1
  5
92A
  6
HIDDEN
 62
4
 10
28.5362
 20
-17.9101
 30
0.0
 11
28.5362
 21
-18.6993
 31
0.0
  0
LINE
  8
1
  5
92C
  6
HIDDEN
 62
4
 10
26.7398
 20
-14.7215
 30
0.0
 11
26.7398
 21
-15.3804
 31
0.0
  0
LINE
  8
1
  5
92E
  6
HIDDEN
 62
4
 10
26.7398
 20
-16.2557
 30
0.0
 11
26.7398
 21
-17.0489
 31
0.0
  0
LINE
  8
1
  5
930
  6
HIDDEN
 62
4
 10
26.7398
 20
-17.8969
 30
0.0
 11
26.7398
 21
-18.699
 31
0.0
  0
LINE
  8
1
  5
932
  6
HIDDEN
 62
4
 10
28.5362
 20
-19.5695
 30
0.0
 11
28.5362
 21
-20.536
 31
0.0
  0
LINE
  8
1
  5
934
  6
HIDDEN
 62
4
 10
28.9113
 20
-14.6642
 30
0.0
 11
28.9113
 21
-20.5435
 31
0.0
  0
LINE
  8
1
  5
936
  6
HIDDEN
 62
4
 10
26.7398
 20
-19.5654
 30
0.0
 11
26.7398
 21
-20.4862
 31
0.0
  0
LINE
  8
1
  5
938
  6
HIDDEN
 62
4
 10
26.3648
 20
-14.7348
 30
0.0
 11
26.3648
 21
-20.4729
 31
0.0
  0
INSERT
  8
2
  5
93A
  6
CONTINUOUS
 62
7
  2
ARROWD
 10
14.331
 20
-15.0015
 30
0.0
 41
5.378416
 42
5.378416
 43
1.0
 70
1
 71
1
  0
TEXT
  8
1
  5
93C
  6
CONTINUOUS
 62
3
 10
13.9761
 20
-12.8596
 30
0.0
  1
F-0
 40
0.3329
 41
1.0
  7
STANDARD
  0
LINE
  8
2
  5
93E
  6
CENTER
 62
1
 10
45.178
 20
-27.0572
 30
0.0
 11
14.6483
 21
-27.0572
 31
0.0
  0
LINE
  8
1
  5
940
  6
HIDDEN
 62
30
 10
32.1777
 20
-30.785
 30
0.0
 11
32.1777
 21
-4.1726
 31
0.0
  0
LINE
  8
1
  5
942
  6
HIDDEN
 62
30
 10
32.5526
 20
-30.785
 30
0.0
 11
32.5526
 21
-4.1726
 31
0.0
  0
LINE
  8
1
  5
944
  6
DIVIDE
 62
6
 10
32.428
 20
-4.1726
 30
0.0
 11
32.428
 21
-30.785
 31
0.0
  0
LINE
  8
6
  5
946
  6
HIDDEN
 62
30
 10
23.0592
 20
-25.1485
 30
0.0
 11
32.936
 21
-25.1485
 31
0.0
  0
LINE
  8
6
  5
948
  6
HIDDEN
 62
30
 10
32.936
 20
-25.1485
 30
0.0
 11
32.936
 21
-25.2736
 31
0.0
  0
LINE
  8
6
  5
94A
  6
HIDDEN
 62
30
 10
31.6236
 20
-25.0235
 30
0.0
 11
31.6236
 21
-25.1485
 31
0.0
  0
LINE
  8
1
  5
94C
  6
HIDDEN
 62
30
 10
28.6166
 20
-30.785
 30
0.0
 11
28.6166
 21
-4.1726
 31
0.0
  0
LINE
  8
1
  5
94E
  6
HIDDEN
 62
30
 10
28.2416
 20
-30.785
 30
0.0
 11
28.2416
 21
-4.1726
 31
0.0
  0
ARC
  8
2
  5
950
  6
HIDDEN
 62
4
 10
26.651771
 20
7.796563
 30
0.0
 40
36.887396
 50
269.2772055556
 51
270.197725
  0
LINE
  8
2
  5
952
  6
HIDDEN
 62
4
 10
26.779
 20
-29.0909
 30
0.0
 11
31.6236
 21
-29.0909
 31
0.0
  0
LINE
  8
6
  5
954
  6
HIDDEN
 62
30
 10
23.0592
 20
-28.9659
 30
0.0
 11
32.936
 21
-28.9659
 31
0.0
  0
LINE
  8
6
  5
956
  6
HIDDEN
 62
30
 10
31.6236
 20
-29.0909
 30
0.0
 11
31.6236
 21
-28.9659
 31
0.0
  0
ARC
  8
2
  5
958
  6
HIDDEN
 62
4
 10
26.651771
 20
7.796563
 30
0.0
 40
36.887396
 50
264.4109305556
 51
269.2772055556
  0
CIRCLE
  8
2
  5
95A
  6
HIDDEN
 62
4
 10
72.321672
 20
-17.478777
 30
0.0
 40
0.062502
  0
LINE
  8
2
  5
95C
  6
HIDDEN
 62
4
 10
72.3217
 20
-17.4164
 30
0.0
 11
73.8484
 21
-17.4164
 31
0.0
  0
LINE
  8
2
  5
95E
  6
HIDDEN
 62
4
 10
72.3217
 20
-17.5414
 30
0.0
 11
73.8484
 21
-17.5414
 31
0.0
  0
LINE
  8
2
  5
960
  6
HIDDEN
 62
4
 10
73.8484
 20
-17.5414
 30
0.0
 11
73.8484
 21
-17.4164
 31
0.0
  0
ARC
  8
1
  5
962
  6
CONTINUOUS
 62
3
 10
70.812677
 20
29.506787
 30
0.0
 40
47.468316
 50
271.6730527778
 51
277.6587833333
  0
POLYLINE
  8
1
  5
964
  6
CONTINUOUS
 62
3
 10
0.0
 20
0.0
 30
0.0
 66
1
 70
0
  0
VERTEX
  8
1
  5
965
  6
CONTINUOUS
 62
3
 10
41.194823
 20
-20.354183
 30
0.0
 42
0.006078
  0
VERTEX
  8
1
  5
966
  6
CONTINUOUS
 62
3
 10
56.713411
 20
-19.336071
 30
0.0
 42
0.006082
  0
VERTEX
  8
1
  5
967
  6
CONTINUOUS
 62
3
 10
72.198571
 20
-17.941261
 30
0.0
 42
0.006082
  0
SEQEND
  8
1
  5
968
  0
LINE
  8
2
  5
96A
  6
HIDDEN
 62
4
 10
72.3842
 20
-17.4789
 30
0.0
 11
72.3842
 21
-16.6143
 31
0.0
  0
LINE
  8
2
  5
96C
  6
HIDDEN
 62
4
 10
72.3842
 20
-16.6143
 30
0.0
 11
72.2592
 21
-16.6143
 31
0.0
  0
LINE
  8
2
  5
96E
  6
HIDDEN
 62
4
 10
72.3842
 20
-17.4789
 30
0.0
 11
72.3842
 21
-18.3432
 31
0.0
  0
LINE
  8
2
  5
970
  6
HIDDEN
 62
4
 10
72.3842
 20
-18.3432
 30
0.0
 11
72.2592
 21
-18.3432
 31
0.0
  0
ARC
  8
2
  5
972
  6
CONTINUOUS
 62
3
 10
34.870298
 20
-26.349379
 30
0.0
 40
0.28129
 50
128.318875
 51
231.6811277778
  0
ARC
  8
2
  5
974
  6
CONTINUOUS
 62
3
 10
34.870298
 20
-26.349379
 30
0.0
 40
0.28129
 50
231.6822055556
 51
51.6811277778
  0
LINE
  8
2
  5
976
  6
CONTINUOUS
 62
3
 10
34.8703
 20
-26.3494
 30
0.0
 11
34.8703
 21
-26.417
 31
0.0
  0
LINE
  8
2
  5
978
  6
CONTINUOUS
 62
3
 10
34.8703
 20
-26.3494
 30
0.0
 11
34.9379
 21
-26.3494
 31
0.0
  0
LINE
  8
2
  5
97A
  6
CONTINUOUS
 62
3
 10
34.8703
 20
-26.3494
 30
0.0
 11
34.8703
 21
-26.2818
 31
0.0
  0
LINE
  8
2
  5
97C
  6
CONTINUOUS
 62
3
 10
34.8703
 20
-26.3494
 30
0.0
 11
34.8027
 21
-26.3494
 31
0.0
  0
CIRCLE
  8
2
  5
97E
  6
CONTINUOUS
 62
3
 10
34.870298
 20
-26.349379
 30
0.0
 40
0.131647
  0
LINE
  8
6
  5
980
  6
HIDDEN
 62
30
 10
23.4342
 20
-25.2736
 30
0.0
 11
23.4342
 21
-28.8409
 31
0.0
  0
LINE
  8
6
  5
982
  6
HIDDEN
 62
30
 10
24.0636
 20
-28.9659
 30
0.0
 11
24.0636
 21
-28.8409
 31
0.0
  0
LINE
  8
6
  5
984
  6
HIDDEN
 62
30
 10
24.0636
 20
-25.2736
 30
0.0
 11
24.0636
 21
-25.1485
 31
0.0
  0
LINE
  8
6
  5
986
  6
HIDDEN
 62
30
 10
24.6136
 20
-28.9659
 30
0.0
 11
24.6136
 21
-28.8409
 31
0.0
  0
LINE
  8
6
  5
988
  6
HIDDEN
 62
30
 10
24.6136
 20
-25.2736
 30
0.0
 11
24.6136
 21
-25.1485
 31
0.0
  0
LINE
  8
6
  5
98A
  6
HIDDEN
 62
30
 10
25.9233
 20
-28.9659
 30
0.0
 11
25.9233
 21
-28.8409
 31
0.0
  0
LINE
  8
6
  5
98C
  6
HIDDEN
 62
30
 10
25.9233
 20
-25.2736
 30
0.0
 11
25.9233
 21
-25.1485
 31
0.0
  0
LINE
  8
6
  5
98E
  6
HIDDEN
 62
30
 10
26.4434
 20
-28.9659
 30
0.0
 11
26.4434
 21
-28.8409
 31
0.0
  0
LINE
  8
6
  5
990
  6
HIDDEN
 62
30
 10
26.4434
 20
-25.2736
 30
0.0
 11
26.4434
 21
-25.1485
 31
0.0
  0
LINE
  8
6
  5
992
  6
HIDDEN
 62
30
 10
26.8985
 20
-28.8409
 30
0.0
 11
26.8985
 21
-25.2736
 31
0.0
  0
LINE
  8
6
  5
994
  6
HIDDEN
 62
30
 10
23.0592
 20
-28.8409
 30
0.0
 11
24.0636
 21
-28.8409
 31
0.0
  0
LINE
  8
6
  5
996
  6
HIDDEN
 62
30
 10
24.6136
 20
-28.8409
 30
0.0
 11
25.9233
 21
-28.8409
 31
0.0
  0
LINE
  8
6
  5
998
  6
HIDDEN
 62
30
 10
26.4434
 20
-28.8409
 30
0.0
 11
32.936
 21
-28.8409
 31
0.0
  0
LINE
  8
6
  5
99A
  6
HIDDEN
 62
30
 10
26.4434
 20
-25.2736
 30
0.0
 11
32.936
 21
-25.2736
 31
0.0
  0
LINE
  8
6
  5
99C
  6
HIDDEN
 62
30
 10
23.0592
 20
-25.2736
 30
0.0
 11
24.0636
 21
-25.2736
 31
0.0
  0
LINE
  8
6
  5
99E
  6
HIDDEN
 62
30
 10
24.6136
 20
-25.2736
 30
0.0
 11
25.9233
 21
-25.2736
 31
0.0
  0
LINE
  8
6
  5
9A0
  6
HIDDEN
 62
30
 10
28.6419
 20
-28.9659
 30
0.0
 11
28.6419
 21
-28.8409
 31
0.0
  0
LINE
  8
6
  5
9A2
  6
HIDDEN
 62
30
 10
28.6419
 20
-25.2736
 30
0.0
 11
28.6419
 21
-25.1485
 31
0.0
  0
LINE
  8
6
  5
9A4
  6
HIDDEN
 62
30
 10
28.0919
 20
-28.9659
 30
0.0
 11
28.0919
 21
-28.8409
 31
0.0
  0
LINE
  8
6
  5
9A6
  6
HIDDEN
 62
30
 10
28.0919
 20
-25.2736
 30
0.0
 11
28.0919
 21
-25.1485
 31
0.0
  0
LINE
  8
0
  5
9A8
  6
HIDDEN
 62
253
 10
31.7746
 20
-1.0313
 30
0.0
 11
31.7746
 21
-10.2373
 31
0.0
  0
LINE
  8
0
  5
9AA
  6
HIDDEN
 62
253
 10
31.1496
 20
-1.0313
 30
0.0
 11
31.1496
 21
-10.2373
 31
0.0
  0
LINE
  8
5
  5
9AC
  6
HIDDEN
 62
46
 10
31.1496
 20
-10.2373
 30
0.0
 11
31.7746
 21
-10.2373
 31
0.0
  0
LINE
  8
0
  5
9AE
  6
HIDDEN
 62
253
 10
27.9698
 20
-32.1444
 30
0.0
 11
27.9698
 21
-29.3223
 31
0.0
  0
LINE
  8
0
  5
9B0
  6
HIDDEN
 62
253
 10
27.7197
 20
-32.1444
 30
0.0
 11
27.7197
 21
-29.3223
 31
0.0
  0
LINE
  8
0
  5
9B2
  6
HIDDEN
 62
253
 10
39.5373
 20
-32.1444
 30
0.0
 11
39.5373
 21
-29.3223
 31
0.0
  0
LINE
  8
0
  5
9B4
  6
HIDDEN
 62
253
 10
39.2874
 20
-32.1444
 30
0.0
 11
39.2874
 21
-29.3223
 31
0.0
  0
LINE
  8
0
  5
9B6
  6
HIDDEN
 62
253
 10
31.1496
 20
-32.5922
 30
0.0
 11
31.1496
 21
-24.7201
 31
0.0
  0
LINE
  8
0
  5
9B8
  6
HIDDEN
 62
253
 10
31.7746
 20
-32.5922
 30
0.0
 11
31.7746
 21
-24.7201
 31
0.0
  0
LINE
  8
7
  5
9BA
  6
HIDDEN
 62
46
 10
31.1183
 20
-1.0313
 30
0.0
 11
31.1183
 21
-10.2373
 31
0.0
  0
LINE
  8
6
  5
9BC
  6
HIDDEN
 62
30
 10
23.0592
 20
-9.8091
 30
0.0
 11
32.936
 21
-9.8091
 31
0.0
  0
LINE
  8
6
  5
9BE
  6
HIDDEN
 62
30
 10
32.936
 20
-9.8091
 30
0.0
 11
32.936
 21
-9.684
 31
0.0
  0
LINE
  8
6
  5
9C0
  6
HIDDEN
 62
30
 10
31.6236
 20
-9.934
 30
0.0
 11
31.6236
 21
-9.8091
 31
0.0
  0
LINE
  8
6
  5
9C2
  6
HIDDEN
 62
30
 10
23.0592
 20
-5.9917
 30
0.0
 11
32.936
 21
-5.9917
 31
0.0
  0
LINE
  8
6
  5
9C4
  6
HIDDEN
 62
30
 10
32.936
 20
-5.9917
 30
0.0
 11
32.936
 21
-6.1167
 31
0.0
  0
LINE
  8
6
  5
9C6
  6
HIDDEN
 62
30
 10
31.6236
 20
-5.8667
 30
0.0
 11
31.6236
 21
-5.9917
 31
0.0
  0
LINE
  8
6
  5
9C8
  6
HIDDEN
 62
30
 10
23.4342
 20
-9.684
 30
0.0
 11
23.4342
 21
-6.1167
 31
0.0
  0
LINE
  8
6
  5
9CA
  6
HIDDEN
 62
30
 10
24.0636
 20
-5.9917
 30
0.0
 11
24.0636
 21
-6.1167
 31
0.0
  0
LINE
  8
6
  5
9CC
  6
HIDDEN
 62
30
 10
24.0636
 20
-9.684
 30
0.0
 11
24.0636
 21
-9.8091
 31
0.0
  0
LINE
  8
6
  5
9CE
  6
HIDDEN
 62
30
 10
24.6136
 20
-5.9917
 30
0.0
 11
24.6136
 21
-6.1167
 31
0.0
  0
LINE
  8
6
  5
9D0
  6
HIDDEN
 62
30
 10
24.6136
 20
-9.684
 30
0.0
 11
24.6136
 21
-9.8091
 31
0.0
  0
LINE
  8
6
  5
9D2
  6
HIDDEN
 62
30
 10
25.9233
 20
-5.9917
 30
0.0
 11
25.9233
 21
-6.1167
 31
0.0
  0
LINE
  8
6
  5
9D4
  6
HIDDEN
 62
30
 10
25.9233
 20
-9.684
 30
0.0
 11
25.9233
 21
-9.8091
 31
0.0
  0
LINE
  8
6
  5
9D6
  6
HIDDEN
 62
30
 10
26.4434
 20
-5.9917
 30
0.0
 11
26.4434
 21
-6.1167
 31
0.0
  0
LINE
  8
6
  5
9D8
  6
HIDDEN
 62
30
 10
26.4434
 20
-9.684
 30
0.0
 11
26.4434
 21
-9.8091
 31
0.0
  0
LINE
  8
6
  5
9DA
  6
HIDDEN
 62
30
 10
26.8985
 20
-6.1167
 30
0.0
 11
26.8985
 21
-9.684
 31
0.0
  0
LINE
  8
6
  5
9DC
  6
HIDDEN
 62
30
 10
23.0592
 20
-6.1167
 30
0.0
 11
24.0636
 21
-6.1167
 31
0.0
  0
LINE
  8
6
  5
9DE
  6
HIDDEN
 62
30
 10
24.6136
 20
-6.1167
 30
0.0
 11
25.9233
 21
-6.1167
 31
0.0
  0
LINE
  8
6
  5
9E0
  6
HIDDEN
 62
30
 10
26.4434
 20
-6.1167
 30
0.0
 11
32.936
 21
-6.1167
 31
0.0
  0
LINE
  8
6
  5
9E2
  6
HIDDEN
 62
30
 10
26.4434
 20
-9.684
 30
0.0
 11
32.936
 21
-9.684
 31
0.0
  0
LINE
  8
6
  5
9E4
  6
HIDDEN
 62
30
 10
23.0592
 20
-9.684
 30
0.0
 11
24.0636
 21
-9.684
 31
0.0
  0
LINE
  8
6
  5
9E6
  6
HIDDEN
 62
30
 10
24.6136
 20
-9.684
 30
0.0
 11
25.9233
 21
-9.684
 31
0.0
  0
LINE
  8
6
  5
9E8
  6
HIDDEN
 62
30
 10
28.6419
 20
-5.9917
 30
0.0
 11
28.6419
 21
-6.1167
 31
0.0
  0
LINE
  8
6
  5
9EA
  6
HIDDEN
 62
30
 10
28.6419
 20
-9.684
 30
0.0
 11
28.6419
 21
-9.8091
 31
0.0
  0
LINE
  8
6
  5
9EC
  6
HIDDEN
 62
30
 10
28.0919
 20
-5.9917
 30
0.0
 11
28.0919
 21
-6.1167
 31
0.0
  0
LINE
  8
6
  5
9EE
  6
HIDDEN
 62
30
 10
28.0919
 20
-9.684
 30
0.0
 11
28.0919
 21
-9.8091
 31
0.0
  0
LINE
  8
8
  5
9F0
  6
CONTINUOUS
 62
7
 10
25.2207
 20
-27.9948
 30
0.0
 11
26.8458
 21
-27.9948
 31
0.0
  0
LINE
  8
8
  5
9F2
  6
CONTINUOUS
 62
7
 10
25.2207
 20
-27.9948
 30
0.0
 11
25.2207
 21
-26.1197
 31
0.0
  0
LINE
  8
8
  5
9F4
  6
CONTINUOUS
 62
7
 10
25.2207
 20
-26.1197
 30
0.0
 11
26.8458
 21
-26.1197
 31
0.0
  0
LINE
  8
8
  5
9F6
  6
CONTINUOUS
 62
7
 10
25.2207
 20
-26.6821
 30
0.0
 11
27.4084
 21
-26.6821
 31
0.0
  0
LINE
  8
8
  5
9F8
  6
CONTINUOUS
 62
7
 10
25.2207
 20
-27.4322
 30
0.0
 11
27.4084
 21
-27.4322
 31
0.0
  0
LINE
  8
8
  5
9FA
  6
CONTINUOUS
 62
7
 10
25.2207
 20
-27.4947
 30
0.0
 11
27.4084
 21
-27.4947
 31
0.0
  0
LINE
  8
8
  5
9FC
  6
CONTINUOUS
 62
7
 10
25.2207
 20
-26.6196
 30
0.0
 11
27.4084
 21
-26.6196
 31
0.0
  0
LINE
  8
8
  5
9FE
  6
CENTER
 62
1
 10
26.2209
 20
-27.2887
 30
0.0
 11
26.2209
 21
-26.8349
 31
0.0
  0
CIRCLE
  8
8
  5
A00
  6
CONTINUOUS
 62
7
 10
26.220804
 20
-27.057203
 30
0.0
 40
0.078128
  0
LINE
  8
8
  5
A02
  6
CONTINUOUS
 62
7
 10
27.4084
 20
-27.4947
 30
0.0
 11
27.4084
 21
-26.6196
 31
0.0
  0
LINE
  8
8
  5
A04
  6
CONTINUOUS
 62
7
 10
26.8458
 20
-27.9948
 30
0.0
 11
26.8458
 21
-27.4947
 31
0.0
  0
LINE
  8
8
  5
A06
  6
CONTINUOUS
 62
7
 10
26.8458
 20
-26.6196
 30
0.0
 11
26.8458
 21
-26.1197
 31
0.0
  0
LINE
  8
8
  5
A08
  6
CONTINUOUS
 62
7
 10
26.5958
 20
-27.932
 30
0.0
 11
26.5958
 21
-27.6867
 31
0.0
  0
LINE
  8
8
  5
A0A
  6
CONTINUOUS
 62
7
 10
26.5958
 20
-26.4231
 30
0.0
 11
26.5958
 21
-26.1917
 31
0.0
  0
CIRCLE
  8
8
  5
A0C
  6
CONTINUOUS
 62
7
 10
26.590317
 20
-26.307178
 30
0.0
 40
0.062502
  0
CIRCLE
  8
8
  5
A0E
  6
CONTINUOUS
 62
7
 10
25.470779
 20
-26.307178
 30
0.0
 40
0.062502
  0
CIRCLE
  8
8
  5
A10
  6
CONTINUOUS
 62
7
 10
26.594917
 20
-27.807229
 30
0.0
 40
0.062502
  0
CIRCLE
  8
8
  5
A12
  6
CONTINUOUS
 62
7
 10
25.470779
 20
-27.807229
 30
0.0
 40
0.062502
  0
LINE
  8
8
  5
A14
  6
CONTINUOUS
 62
7
 10
25.4708
 20
-27.9275
 30
0.0
 11
25.4708
 21
-27.6867
 31
0.0
  0
LINE
  8
8
  5
A16
  6
CONTINUOUS
 62
7
 10
25.4708
 20
-26.4276
 30
0.0
 11
25.4708
 21
-26.1824
 31
0.0
  0
LINE
  8
8
  5
A18
  6
CONTINUOUS
 62
7
 10
25.3392
 20
-26.3072
 30
0.0
 11
25.5895
 21
-26.3072
 31
0.0
  0
LINE
  8
8
  5
A1A
  6
CONTINUOUS
 62
7
 10
26.4746
 20
-26.3072
 30
0.0
 11
26.7108
 21
-26.3072
 31
0.0
  0
LINE
  8
8
  5
A1C
  6
CONTINUOUS
 62
7
 10
25.3392
 20
-27.8072
 30
0.0
 11
25.5802
 21
-27.8072
 31
0.0
  0
LINE
  8
8
  5
A1E
  6
CONTINUOUS
 62
7
 10
26.4791
 20
-27.8072
 30
0.0
 11
26.72
 21
-27.8072
 31
0.0
  0
LINE
  8
6
  5
A20
  6
HIDDEN
 62
30
 10
25.0013
 20
-25.1485
 30
0.0
 11
25.0013
 21
-28.9659
 31
0.0
  0
LINE
  8
6
  5
A22
  6
HIDDEN
 62
30
 10
27.4561
 20
-25.1485
 30
0.0
 11
27.4561
 21
-28.9659
 31
0.0
  0
LINE
  8
6
  5
A24
  6
CONTINUOUS
 62
2
 10
36.3039
 20
-16.4229
 30
0.0
 11
40.6084
 21
-15.1132
 31
0.0
  0
LINE
  8
6
  5
A26
  6
CONTINUOUS
 62
2
 10
36.3039
 20
-18.5347
 30
0.0
 11
40.6084
 21
-19.8445
 31
0.0
  0
LINE
  8
1
  5
A28
  6
CONTINUOUS
 62
2
 10
36.5538
 20
-18.2222
 30
0.0
 11
36.5538
 21
-16.7355
 31
0.0
  0
LINE
  8
6
  5
A2A
  6
CONTINUOUS
 62
2
 10
36.5538
 20
-16.4776
 30
0.0
 11
40.6084
 21
-15.2437
 31
0.0
  0
LINE
  8
6
  5
A2C
  6
CONTINUOUS
 62
2
 10
36.5538
 20
-18.4801
 30
0.0
 11
40.6084
 21
-19.7139
 31
0.0
  0
ARC
  8
6
  5
A2E
  6
CONTINUOUS
 62
2
 10
42.186573
 20
3.906765
 30
0.0
 40
23.084622
 50
255.8770777778
 51
266.0799194444
  0
ARC
  8
6
  5
A30
  6
CONTINUOUS
 62
2
 10
42.186573
 20
3.906765
 30
0.0
 40
22.834613
 50
255.7191861111
 51
266.0369305556
  0
LINE
  8
6
  5
A32
  6
CONTINUOUS
 62
2
 10
40.6084
 20
-19.7139
 30
0.0
 11
40.6084
 21
-19.1239
 31
0.0
  0
ARC
  8
6
  5
A34
  6
CONTINUOUS
 62
2
 10
42.186573
 20
-38.86432
 30
0.0
 40
23.084622
 50
93.9200805556
 51
104.1229222222
  0
ARC
  8
6
  5
A36
  6
CONTINUOUS
 62
2
 10
42.186573
 20
-38.86432
 30
0.0
 40
22.834613
 50
93.9630694444
 51
104.2808138889
  0
LINE
  8
6
  5
A38
  6
CONTINUOUS
 62
2
 10
40.6084
 20
-18.8732
 30
0.0
 11
40.6084
 21
-16.0843
 31
0.0
  0
LINE
  8
6
  5
A3A
  6
CONTINUOUS
 62
2
 10
40.6084
 20
-15.8338
 30
0.0
 11
40.6084
 21
-15.2437
 31
0.0
  0
LINE
  8
6
  5
A3C
  6
CONTINUOUS
 62
2
 10
47.4862
 20
-19.6698
 30
0.0
 11
47.4862
 21
-18.9789
 31
0.0
  0
LINE
  8
6
  5
A3E
  6
CONTINUOUS
 62
2
 10
47.2362
 20
-19.6847
 30
0.0
 11
47.2362
 21
-18.9841
 31
0.0
  0
LINE
  8
6
  5
A40
  6
CONTINUOUS
 62
2
 10
47.4862
 20
-18.7288
 30
0.0
 11
47.4862
 21
-16.2289
 31
0.0
  0
LINE
  8
6
  5
A42
  6
CONTINUOUS
 62
2
 10
47.4862
 20
-15.9788
 30
0.0
 11
47.4862
 21
-15.2877
 31
0.0
  0
LINE
  8
6
  5
A44
  6
CONTINUOUS
 62
2
 10
47.2362
 20
-18.734
 30
0.0
 11
47.2362
 21
-16.2235
 31
0.0
  0
LINE
  8
6
  5
A46
  6
CONTINUOUS
 62
2
 10
47.2362
 20
-15.9734
 30
0.0
 11
47.2362
 21
-15.2728
 31
0.0
  0
LINE
  8
6
  5
A48
  6
CONTINUOUS
 62
2
 10
44.2723
 20
-15.911
 30
0.0
 11
44.2723
 21
-15.1717
 31
0.0
  0
LINE
  8
6
  5
A4A
  6
CONTINUOUS
 62
2
 10
44.0222
 20
-15.9057
 30
0.0
 11
44.0222
 21
-15.1695
 31
0.0
  0
LINE
  8
6
  5
A4C
  6
CONTINUOUS
 62
2
 10
44.2723
 20
-19.7858
 30
0.0
 11
44.2723
 21
-19.0465
 31
0.0
  0
LINE
  8
6
  5
A4E
  6
CONTINUOUS
 62
2
 10
44.2723
 20
-18.7964
 30
0.0
 11
44.2723
 21
-16.1611
 31
0.0
  0
LINE
  8
6
  5
A50
  6
CONTINUOUS
 62
2
 10
44.0222
 20
-19.788
 30
0.0
 11
44.0222
 21
-19.0518
 31
0.0
  0
LINE
  8
6
  5
A52
  6
CONTINUOUS
 62
2
 10
44.0222
 20
-18.8017
 30
0.0
 11
44.0222
 21
-16.1558
 31
0.0
  0
LINE
  8
6
  5
A54
  6
CONTINUOUS
 62
2
 10
40.8584
 20
-15.839
 30
0.0
 11
40.8584
 21
-15.227
 31
0.0
  0
LINE
  8
6
  5
A56
  6
CONTINUOUS
 62
2
 10
40.8584
 20
-19.7307
 30
0.0
 11
40.8584
 21
-19.1185
 31
0.0
  0
LINE
  8
6
  5
A58
  6
CONTINUOUS
 62
2
 10
40.8584
 20
-18.8684
 30
0.0
 11
40.8584
 21
-16.0891
 31
0.0
  0
LINE
  8
6
  5
A5A
  6
CONTINUOUS
 62
2
 10
50.0252
 20
-16.0322
 30
0.0
 11
50.0252
 21
-15.4951
 31
0.0
  0
LINE
  8
6
  5
A5C
  6
CONTINUOUS
 62
2
 10
50.0252
 20
-19.4624
 30
0.0
 11
50.0252
 21
-18.9253
 31
0.0
  0
LINE
  8
6
  5
A5E
  6
CONTINUOUS
 62
2
 10
50.0252
 20
-18.6752
 30
0.0
 11
50.0252
 21
-16.2823
 31
0.0
  0
LINE
  8
6
  5
A60
  6
CONTINUOUS
 62
2
 10
40.8584
 20
-15.839
 30
0.0
 11
44.0222
 21
-15.9057
 31
0.0
  0
LINE
  8
6
  5
A62
  6
CONTINUOUS
 62
2
 10
40.8584
 20
-16.0891
 30
0.0
 11
44.0222
 21
-16.1558
 31
0.0
  0
ARC
  8
1
  5
A64
  6
CONTINUOUS
 62
2
 10
43.591804
 20
-78.594483
 30
0.0
 40
63.426461
 50
84.1784194444
 51
86.4797888889
  0
ARC
  8
1
  5
A66
  6
CONTINUOUS
 62
2
 10
43.591804
 20
-78.594483
 30
0.0
 40
63.426461
 50
89.6111027778
 51
92.4699611111
  0
ARC
  8
1
  5
A68
  6
CONTINUOUS
 62
2
 10
43.591804
 20
-78.594483
 30
0.0
 40
63.426461
 50
86.7060333333
 51
89.38525
  0
ARC
  8
1
  5
A6A
  6
CONTINUOUS
 62
2
 10
43.591804
 20
43.636928
 30
0.0
 40
63.426461
 50
267.5300388889
 51
270.3888972222
  0
LINE
  8
6
  5
A6C
  6
CONTINUOUS
 62
2
 10
40.8584
 20
-19.1185
 30
0.0
 11
44.0222
 21
-19.0518
 31
0.0
  0
LINE
  8
6
  5
A6E
  6
CONTINUOUS
 62
2
 10
40.8584
 20
-18.8684
 30
0.0
 11
44.0222
 21
-18.8017
 31
0.0
  0
LINE
  8
6
  5
A70
  6
CONTINUOUS
 62
2
 10
44.2723
 20
-15.911
 30
0.0
 11
47.2362
 21
-15.9734
 31
0.0
  0
LINE
  8
6
  5
A72
  6
CONTINUOUS
 62
2
 10
47.4862
 20
-15.9788
 30
0.0
 11
50.0252
 21
-16.0322
 31
0.0
  0
LINE
  8
6
  5
A74
  6
CONTINUOUS
 62
2
 10
44.2723
 20
-16.1611
 30
0.0
 11
47.2362
 21
-16.2235
 31
0.0
  0
LINE
  8
6
  5
A76
  6
CONTINUOUS
 62
2
 10
47.4862
 20
-16.2289
 30
0.0
 11
50.0252
 21
-16.2823
 31
0.0
  0
LINE
  8
6
  5
A78
  6
CONTINUOUS
 62
2
 10
44.2723
 20
-18.7964
 30
0.0
 11
47.2362
 21
-18.734
 31
0.0
  0
LINE
  8
6
  5
A7A
  6
CONTINUOUS
 62
2
 10
47.4862
 20
-18.7288
 30
0.0
 11
50.0252
 21
-18.6752
 31
0.0
  0
LINE
  8
6
  5
A7C
  6
CONTINUOUS
 62
2
 10
44.2723
 20
-19.0465
 30
0.0
 11
47.2362
 21
-18.9841
 31
0.0
  0
LINE
  8
6
  5
A7E
  6
CONTINUOUS
 62
2
 10
47.4862
 20
-18.9789
 30
0.0
 11
50.0252
 21
-18.9253
 31
0.0
  0
ARC
  8
1
  5
A80
  6
CONTINUOUS
 62
2
 10
43.591804
 20
43.636928
 30
0.0
 40
63.426461
 50
270.61475
 51
273.2939666667
  0
ARC
  8
1
  5
A82
  6
CONTINUOUS
 62
2
 10
43.591804
 20
43.636928
 30
0.0
 40
63.426461
 50
273.5202111111
 51
275.8215805556
  0
LINE
  8
1
  5
A84
  6
HIDDEN
 62
4
 10
34.3483
 20
-25.9103
 30
0.0
 11
34.3483
 21
-25.6046
 31
0.0
  0
LINE
  8
1
  5
A86
  6
HIDDEN
 62
4
 10
34.3483
 20
-28.4863
 30
0.0
 11
34.3483
 21
-28.048
 31
0.0
  0
LINE
  8
1
  5
A88
  6
HIDDEN
 62
4
 10
34.3483
 20
-27.1784
 30
0.0
 11
34.3483
 21
-26.7799
 31
0.0
  0
LINE
  8
1
  5
A8A
  6
HIDDEN
 62
4
 10
34.3483
 20
-25.6046
 30
0.0
 11
33.8484
 21
-25.6046
 31
0.0
  0
LINE
  8
1
  5
A8C
  6
HIDDEN
 62
4
 10
34.3483
 20
-28.4863
 30
0.0
 11
33.8484
 21
-28.4863
 31
0.0
  0
LINE
  8
1
  5
A8E
  6
CONTINUOUS
 62
3
 10
33.8484
 20
-28.8903
 30
0.0
 11
33.8484
 21
-25.2242
 31
0.0
  0
LINE
  8
1
  5
A90
  6
HIDDEN
 62
4
 10
36.1423
 20
-25.6046
 30
0.0
 11
36.6423
 21
-25.6046
 31
0.0
  0
LINE
  8
1
  5
A92
  6
HIDDEN
 62
4
 10
34.2631
 20
-28.4863
 30
0.0
 11
33.9734
 21
-28.4863
 31
0.0
  0
LINE
  8
1
  5
A94
  6
HIDDEN
 62
4
 10
36.1423
 20
-28.4863
 30
0.0
 11
36.6423
 21
-28.4863
 31
0.0
  0
LINE
  8
1
  5
A96
  6
HIDDEN
 62
4
 10
36.1423
 20
-25.6046
 30
0.0
 11
36.1423
 21
-25.9103
 31
0.0
  0
LINE
  8
1
  5
A98
  6
HIDDEN
 62
4
 10
36.1423
 20
-26.7799
 30
0.0
 11
36.1423
 21
-27.1784
 31
0.0
  0
LINE
  8
1
  5
A9A
  6
HIDDEN
 62
4
 10
36.1423
 20
-28.048
 30
0.0
 11
36.1423
 21
-28.4863
 31
0.0
  0
LINE
  8
1
  5
A9C
  6
CONTINUOUS
 62
3
 10
36.6423
 20
-25.5977
 30
0.0
 11
36.6423
 21
-28.5167
 31
0.0
  0
LINE
  8
1
  5
A9E
  6
CONTINUOUS
 62
3
 10
26.7666
 20
-4.1726
 30
0.0
 11
27.1719
 21
-1.0313
 31
0.0
  0
ARC
  8
2
  5
AA0
  6
HIDDEN
 62
4
 10
27.459181
 20
-83.639329
 30
0.0
 40
58.388526
 50
75.7108333333
 51
84.5285611111
  0
ARC
  8
2
  5
AA2
  6
HIDDEN
 62
4
 10
27.459181
 20
29.524923
 30
0.0
 40
58.388526
 50
275.4714388889
 51
284.2891666667
  0
LINE
  8
10
  5
AA4
  6
HIDDEN
 62
4
 10
32.936
 20
-25.2736
 30
0.0
 11
32.936
 21
-25.4171
 31
0.0
  0
LINE
  8
10
  5
AA6
  6
HIDDEN
 62
4
 10
32.936
 20
-28.9659
 30
0.0
 11
32.936
 21
-28.6971
 31
0.0
  0
ARC
  8
10
  5
AA8
  6
HIDDEN
 62
4
 10
33.036036
 20
-25.417282
 30
0.0
 40
0.100003
 50
180.0
 51
264.5285611111
  0
ARC
  8
10
  5
AAA
  6
HIDDEN
 62
4
 10
33.036036
 20
-28.697124
 30
0.0
 40
0.100003
 50
95.4714388889
 51
180.0
  0
LINE
  8
2
  5
AAC
  6
CONTINUOUS
 62
3
 10
36.3704
 20
-25.9103
 30
0.0
 11
34.9907
 21
-25.9103
 31
0.0
  0
LINE
  8
2
  5
AAE
  6
CONTINUOUS
 62
3
 10
34.7498
 20
-25.9103
 30
0.0
 11
34.1202
 21
-25.9103
 31
0.0
  0
CIRCLE
  8
2
  5
AB0
  6
CONTINUOUS
 62
3
 10
34.248854
 20
-27.87487
 30
0.0
 40
0.067957
  0
CIRCLE
  8
2
  5
AB2
  6
CONTINUOUS
 62
3
 10
36.248012
 20
-27.87487
 30
0.0
 40
0.067957
  0
CIRCLE
  8
2
  5
AB4
  6
CONTINUOUS
 62
3
 10
36.248012
 20
-27.360175
 30
0.0
 40
0.067957
  0
CIRCLE
  8
2
  5
AB6
  6
CONTINUOUS
 62
3
 10
34.248854
 20
-27.360175
 30
0.0
 40
0.067957
  0
ARC
  8
2
  5
AB8
  6
CONTINUOUS
 62
3
 10
35.106714
 20
-27.32147
 30
0.0
 40
0.100003
 50
186.1442527778
 51
231.6811277778
  0
ARC
  8
2
  5
ABA
  6
CONTINUOUS
 62
3
 10
34.633882
 20
-27.32147
 30
0.0
 40
0.100003
 50
308.3188722222
 51
353.8557472222
  0
CIRCLE
  8
2
  5
ABC
  6
CONTINUOUS
 62
3
 10
34.870298
 20
-26.968426
 30
0.0
 40
0.033974
  0
CIRCLE
  8
2
  5
ABE
  6
CONTINUOUS
 62
3
 10
34.870298
 20
-27.122965
 30
0.0
 40
0.033974
  0
CIRCLE
  8
2
  5
AC0
  6
CONTINUOUS
 62
3
 10
34.870298
 20
-27.281512
 30
0.0
 40
0.033974
  0
TEXT
  8
2
  5
AC2
  6
CONTINUOUS
 62
3
 10
35.8983
 20
-27.7728
 30
0.0
  1
S-148
 40
0.0815
 50
90.0
 41
1.0
  7
STANDARD
 72
4
 11
35.8575
 21
-27.6063
 31
0.0
  0
TEXT
  8
2
  5
AC4
  6
CONTINUOUS
 62
3
 10
35.6903
 20
-27.8332
 30
0.0
  1
FUTABA
 40
0.0815
 50
90.0
 41
1.0
  7
STANDARD
 72
4
 11
35.6495
 21
-27.6058
 31
0.0
  0
LINE
  8
2
  5
AC6
  6
CONTINUOUS
 62
3
 10
35.9829
 20
-27.2273
 30
0.0
 11
35.5136
 21
-27.2273
 31
0.0
  0
LINE
  8
2
  5
AC8
  6
CONTINUOUS
 62
3
 10
35.9829
 20
-27.9815
 30
0.0
 11
35.9829
 21
-27.2273
 31
0.0
  0
LINE
  8
2
  5
ACA
  6
CONTINUOUS
 62
3
 10
35.5136
 20
-27.9815
 30
0.0
 11
35.9829
 21
-27.9815
 31
0.0
  0
LINE
  8
2
  5
ACC
  6
CONTINUOUS
 62
3
 10
35.5136
 20
-27.2273
 30
0.0
 11
35.5136
 21
-27.9815
 31
0.0
  0
LINE
  8
2
  5
ACE
  6
CONTINUOUS
 62
3
 10
34.1202
 20
-28.048
 30
0.0
 11
36.3704
 21
-28.048
 31
0.0
  0
LINE
  8
2
  5
AD0
  6
CONTINUOUS
 62
3
 10
34.7725
 20
-26.9684
 30
0.0
 11
34.7333
 21
-27.3322
 31
0.0
  0
LINE
  8
2
  5
AD2
  6
CONTINUOUS
 62
3
 10
34.968
 20
-26.9684
 30
0.0
 11
35.0073
 21
-27.3322
 31
0.0
  0
ARC
  8
2
  5
AD4
  6
CONTINUOUS
 62
3
 10
34.870298
 20
-26.968426
 30
0.0
 40
0.097829
 50
360.0
 51
180.0
  0
LINE
  8
2
  5
AD6
  6
CONTINUOUS
 62
3
 10
36.1204
 20
-27.1784
 30
0.0
 11
36.1204
 21
-28.048
 31
0.0
  0
LINE
  8
2
  5
AD8
  6
CONTINUOUS
 62
3
 10
34.3703
 20
-27.1784
 30
0.0
 11
34.3703
 21
-28.048
 31
0.0
  0
LINE
  8
2
  5
ADA
  6
CONTINUOUS
 62
3
 10
36.3704
 20
-28.048
 30
0.0
 11
36.3704
 21
-27.1784
 31
0.0
  0
LINE
  8
2
  5
ADC
  6
CONTINUOUS
 62
3
 10
34.1202
 20
-27.1784
 30
0.0
 11
34.1202
 21
-28.048
 31
0.0
  0
ARC
  8
2
  5
ADE
  6
CONTINUOUS
 62
3
 10
34.870298
 20
-27.617522
 30
0.0
 40
0.28129
 50
128.318875
 51
231.6811277778
  0
ARC
  8
2
  5
AE0
  6
CONTINUOUS
 62
3
 10
34.870298
 20
-27.617522
 30
0.0
 40
0.28129
 50
231.6822055556
 51
51.6811277778
  0
LINE
  8
2
  5
AE2
  6
CONTINUOUS
 62
3
 10
34.8703
 20
-27.6175
 30
0.0
 11
34.8703
 21
-27.6851
 31
0.0
  0
LINE
  8
2
  5
AE4
  6
CONTINUOUS
 62
3
 10
34.8703
 20
-27.6175
 30
0.0
 11
34.9379
 21
-27.6175
 31
0.0
  0
LINE
  8
2
  5
AE6
  6
CONTINUOUS
 62
3
 10
34.8703
 20
-27.6175
 30
0.0
 11
34.8703
 21
-27.5499
 31
0.0
  0
LINE
  8
2
  5
AE8
  6
CONTINUOUS
 62
3
 10
34.8703
 20
-27.6175
 30
0.0
 11
34.8027
 21
-27.6175
 31
0.0
  0
CIRCLE
  8
2
  5
AEA
  6
CONTINUOUS
 62
3
 10
34.870298
 20
-27.617522
 30
0.0
 40
0.131647
  0
LINE
  8
2
  5
AEC
  6
CONTINUOUS
 62
3
 10
36.3704
 20
-27.1784
 30
0.0
 11
34.9907
 21
-27.1784
 31
0.0
  0
LINE
  8
2
  5
AEE
  6
CONTINUOUS
 62
3
 10
34.7498
 20
-27.1784
 30
0.0
 11
34.1202
 21
-27.1784
 31
0.0
  0
LINE
  8
10
  5
AF0
  6
HIDDEN
 62
30
 10
23.0592
 20
-27.0572
 30
0.0
 11
23.7213
 21
-27.0572
 31
0.0
  0
LINE
  8
2
  5
AF2
  6
CONTINUOUS
 62
3
 10
28.8303
 20
-17.4789
 30
0.0
 11
30.5476
 21
-4.1726
 31
0.0
  0
LINE
  8
2
  5
AF4
  6
CONTINUOUS
 62
3
 10
38.5408
 20
-17.4789
 30
0.0
 11
36.8235
 21
-4.1726
 31
0.0
  0
LINE
  8
2
  5
AF6
  6
CONTINUOUS
 62
3
 10
35.5157
 20
-17.4789
 30
0.0
 11
33.7986
 21
-4.1726
 31
0.0
  0
LINE
  8
2
  5
AF8
  6
CONTINUOUS
 62
3
 10
31.8553
 20
-17.4789
 30
0.0
 11
33.5726
 21
-4.1726
 31
0.0
  0
LINE
  8
10
  5
AFA
  6
CONTINUOUS
 62
3
 10
23.0592
 20
-25.4121
 30
0.0
 11
23.0592
 21
-28.7023
 31
0.0
  0
LINE
  8
12
  5
AFC
  6
HIDDEN
 62
4
 10
31.6267
 20
-24.8984
 30
0.0
 11
31.6242
 21
-25.4052
 31
0.0
  0
LINE
  8
12
  5
AFE
  6
HIDDEN
 62
4
 10
31.6242
 20
-25.4052
 30
0.0
 11
39.9234
 21
-26.5574
 31
0.0
  0
LINE
  8
12
  5
B00
  6
HIDDEN
 62
4
 10
31.6242
 20
-28.7092
 30
0.0
 11
39.9234
 21
-27.5571
 31
0.0
  0
LINE
  8
12
  5
B02
  6
HIDDEN
 62
4
 10
26.2367
 20
-25.3986
 30
0.0
 11
31.628
 21
-25.3986
 31
0.0
  0
LINE
  8
12
  5
B04
  6
HIDDEN
 62
4
 10
26.4996
 20
-28.7158
 30
0.0
 11
31.628
 21
-28.7158
 31
0.0
  0
LINE
  8
12
  5
B06
  6
HIDDEN
 62
4
 10
31.628
 20
-29.4659
 30
0.0
 11
31.6242
 21
-28.7092
 31
0.0
  0
LINE
  8
12
  5
B08
  6
HIDDEN
 62
4
 10
33.5417
 20
-27.5269
 30
0.0
 11
33.5417
 21
-26.2603
 31
0.0
  0
LINE
  8
12
  5
B0A
  6
HIDDEN
 62
4
 10
27.8178
 20
-26.2603
 30
0.0
 11
33.5417
 21
-26.2603
 31
0.0
  0
LINE
  8
12
  5
B0C
  6
HIDDEN
 62
4
 10
27.8178
 20
-27.5269
 30
0.0
 11
33.5417
 21
-27.5269
 31
0.0
  0
LINE
  8
12
  5
B0E
  6
HIDDEN
 62
4
 10
32.8503
 20
-4.1726
 30
0.0
 11
32.8503
 21
-5.5104
 31
0.0
  0
LINE
  8
12
  5
B10
  6
HIDDEN
 62
4
 10
33.3505
 20
-4.1726
 30
0.0
 11
33.3505
 21
-5.5104
 31
0.0
  0
LINE
  8
12
  5
B12
  6
HIDDEN
 62
4
 10
33.0219
 20
-4.5812
 30
0.0
 11
33.0219
 21
-4.1675
 31
0.0
  0
LINE
  8
12
  5
B14
  6
HIDDEN
 62
4
 10
33.1534
 20
-4.5812
 30
0.0
 11
33.1534
 21
-4.1674
 31
0.0
  0
ARC
  8
12
  5
B16
  6
HIDDEN
 62
4
 10
33.339073
 20
-4.529492
 30
0.0
 40
0.321436
 50
189.2710305556
 51
218.5067305556
  0
ARC
  8
12
  5
B18
  6
HIDDEN
 62
4
 10
32.836003
 20
-4.529492
 30
0.0
 40
0.321436
 50
321.4932694444
 51
350.7289694444
  0
LINE
  8
12
  5
B1A
  6
HIDDEN
 62
4
 10
32.7373
 20
-4.0476
 30
0.0
 11
32.7373
 21
-4.1726
 31
0.0
  0
LINE
  8
12
  5
B1C
  6
HIDDEN
 62
4
 10
33.4501
 20
-4.0476
 30
0.0
 11
33.4501
 21
-4.1726
 31
0.0
  0
LINE
  8
12
  5
B1E
  6
HIDDEN
 62
4
 10
33.0505
 20
-3.2003
 30
0.0
 11
33.0505
 21
-3.9182
 31
0.0
  0
LINE
  8
12
  5
B20
  6
HIDDEN
 62
4
 10
33.1251
 20
-3.2003
 30
0.0
 11
33.1251
 21
-3.9182
 31
0.0
  0
ARC
  8
12
  5
B22
  6
HIDDEN
 62
4
 10
33.087738
 20
-3.918254
 30
0.0
 40
0.037301
 50
180.0
 51
360.0
  0
ARC
  8
12
  5
B24
  6
HIDDEN
 62
4
 10
33.087538
 20
-3.975756
 30
0.0
 40
0.202607
 50
288.9521194444
 51
79.3334
  0
ARC
  8
12
  5
B26
  6
HIDDEN
 62
4
 10
33.087538
 20
-3.975756
 30
0.0
 40
0.202607
 50
100.5515111111
 51
251.0777805556
  0
ARC
  8
12
  5
B28
  6
HIDDEN
 62
4
 10
33.087538
 20
-3.975756
 30
0.0
 40
0.113204
 50
109.1315694444
 51
70.6539972222
  0
LINE
  8
12
  5
B2A
  6
HIDDEN
 62
4
 10
33.0212
 20
-1.7094
 30
0.0
 11
33.0212
 21
-1.4124
 31
0.0
  0
LINE
  8
12
  5
B2C
  6
HIDDEN
 62
4
 10
33.0932
 20
-1.7094
 30
0.0
 11
33.0932
 21
-1.4124
 31
0.0
  0
ARC
  8
12
  5
B2E
  6
HIDDEN
 62
4
 10
33.057187
 20
-1.420619
 30
0.0
 40
0.036983
 50
347.1098944444
 51
167.1098944444
  0
LINE
  8
12
  5
B30
  6
HIDDEN
 62
4
 10
32.9939
 20
-1.0313
 30
0.0
 11
32.9939
 21
-1.1403
 31
0.0
  0
LINE
  8
12
  5
B32
  6
HIDDEN
 62
4
 10
33.1254
 20
-1.0313
 30
0.0
 11
33.1254
 21
-1.1404
 31
0.0
  0
ARC
  8
12
  5
B34
  6
HIDDEN
 62
4
 10
33.059637
 20
-1.331966
 30
0.0
 40
0.202607
 50
280.6666
 51
71.0478805556
  0
ARC
  8
12
  5
B36
  6
HIDDEN
 62
4
 10
33.059637
 20
-1.331966
 30
0.0
 40
0.202607
 50
108.9222194444
 51
259.4484888889
  0
ARC
  8
12
  5
B38
  6
HIDDEN
 62
4
 10
33.059637
 20
-1.331966
 30
0.0
 40
0.113204
 50
289.3460027778
 51
250.8684305556
  0
LINE
  8
12
  5
B3A
  6
HIDDEN
 62
4
 10
32.6862
 20
-1.0693
 30
0.0
 11
33.3087
 21
-1.0693
 31
0.0
  0
LINE
  8
12
  5
B3C
  6
HIDDEN
 62
4
 10
33.3087
 20
-1.0693
 30
0.0
 11
33.3087
 21
-1.0313
 31
0.0
  0
LINE
  8
12
  5
B3E
  6
HIDDEN
 62
4
 10
32.9318
 20
-1.7094
 30
0.0
 11
33.2233
 21
-1.7094
 31
0.0
  0
LINE
  8
12
  5
B40
  6
HIDDEN
 62
4
 10
33.2233
 20
-1.7094
 30
0.0
 11
33.2233
 21
-3.2003
 31
0.0
  0
LINE
  8
12
  5
B42
  6
HIDDEN
 62
4
 10
33.2233
 20
-3.2003
 30
0.0
 11
32.9318
 21
-3.2003
 31
0.0
  0
LINE
  8
12
  5
B44
  6
HIDDEN
 62
4
 10
32.9318
 20
-3.2003
 30
0.0
 11
32.9318
 21
-1.7094
 31
0.0
  0
LINE
  8
12
  5
B46
  6
HIDDEN
 62
4
 10
33.2233
 20
-3.1169
 30
0.0
 11
32.9318
 21
-3.1169
 31
0.0
  0
LINE
  8
12
  5
B48
  6
HIDDEN
 62
4
 10
33.2233
 20
-3.0098
 30
0.0
 11
32.9318
 21
-3.0098
 31
0.0
  0
LINE
  8
12
  5
B4A
  6
HIDDEN
 62
4
 10
33.2233
 20
-2.9026
 30
0.0
 11
32.9318
 21
-2.9026
 31
0.0
  0
LINE
  8
12
  5
B4C
  6
HIDDEN
 62
4
 10
33.2233
 20
-2.7718
 30
0.0
 11
32.9318
 21
-2.7718
 31
0.0
  0
LINE
  8
12
  5
B4E
  6
HIDDEN
 62
4
 10
33.2233
 20
-2.6407
 30
0.0
 11
32.9318
 21
-2.6407
 31
0.0
  0
LINE
  8
12
  5
B50
  6
HIDDEN
 62
4
 10
33.2233
 20
-2.5337
 30
0.0
 11
32.9318
 21
-2.5337
 31
0.0
  0
LINE
  8
12
  5
B52
  6
HIDDEN
 62
4
 10
33.2233
 20
-2.3909
 30
0.0
 11
32.9318
 21
-2.3909
 31
0.0
  0
LINE
  8
12
  5
B54
  6
HIDDEN
 62
4
 10
33.2233
 20
-2.2955
 30
0.0
 11
32.9318
 21
-2.2955
 31
0.0
  0
LINE
  8
12
  5
B56
  6
HIDDEN
 62
4
 10
33.2233
 20
-2.2002
 30
0.0
 11
32.9318
 21
-2.2002
 31
0.0
  0
LINE
  8
12
  5
B58
  6
HIDDEN
 62
4
 10
33.2233
 20
-2.117
 30
0.0
 11
32.9318
 21
-2.117
 31
0.0
  0
LINE
  8
12
  5
B5A
  6
HIDDEN
 62
4
 10
33.2233
 20
-2.0217
 30
0.0
 11
32.9318
 21
-2.0217
 31
0.0
  0
LINE
  8
12
  5
B5C
  6
HIDDEN
 62
4
 10
33.2233
 20
-1.9145
 30
0.0
 11
32.9318
 21
-1.9145
 31
0.0
  0
LINE
  8
12
  5
B5E
  6
HIDDEN
 62
4
 10
33.2233
 20
-1.7956
 30
0.0
 11
32.9318
 21
-1.7956
 31
0.0
  0
LINE
  8
12
  5
B60
  6
CENTER
 62
1
 10
35.5545
 20
-1.0313
 30
0.0
 11
35.5545
 21
-17.4789
 31
0.0
  0
LINE
  8
10
  5
B62
  6
HIDDEN
 62
30
 10
23.0592
 20
-27.0572
 30
0.0
 11
23.7213
 21
-27.0572
 31
0.0
  0
LINE
  8
10
  5
B64
  6
CONTINUOUS
 62
3
 10
23.0592
 20
-25.4121
 30
0.0
 11
23.0592
 21
-28.7023
 31
0.0
  0
LINE
  8
12
  5
B66
  6
HIDDEN
 62
4
 10
27.8178
 20
-26.2603
 30
0.0
 11
28.4014
 21
-26.2603
 31
0.0
  0
LINE
  8
12
  5
B68
  6
HIDDEN
 62
4
 10
27.8178
 20
-27.5269
 30
0.0
 11
28.4014
 21
-27.5269
 31
0.0
  0
POLYLINE
  8
12
  5
B6A
  6
HIDDEN
 62
2
 10
0.0
 20
0.0
 30
0.0
 66
1
 70
1
  0
VERTEX
  8
12
  5
B6B
  6
HIDDEN
 62
2
 10
31.2493
 20
-16.5572
 30
0.0
  0
VERTEX
  8
12
  5
B6C
  6
HIDDEN
 62
2
 10
33.9062
 20
-16.5572
 30
0.0
  0
VERTEX
  8
12
  5
B6D
  6
HIDDEN
 62
2
 10
33.9062
 20
-18.2933
 30
0.0
  0
VERTEX
  8
12
  5
B6E
  6
HIDDEN
 62
2
 10
31.2493
 20
-18.2933
 30
0.0
  0
SEQEND
  8
12
  5
B6F
  0
POLYLINE
  8
12
  5
B71
  6
HIDDEN
 62
2
 10
0.0
 20
0.0
 30
0.0
 66
1
 70
1
  0
VERTEX
  8
12
  5
B72
  6
HIDDEN
 62
2
 10
11.1255
 20
-16.7995
 30
0.0
  0
VERTEX
  8
12
  5
B73
  6
HIDDEN
 62
2
 10
13.6389
 20
-16.7995
 30
0.0
  0
VERTEX
  8
12
  5
B74
  6
HIDDEN
 62
2
 10
13.6389
 20
-18.1312
 30
0.0
  0
VERTEX
  8
12
  5
B75
  6
HIDDEN
 62
2
 10
11.1255
 20
-18.1312
 30
0.0
  0
SEQEND
  8
12
  5
B76
  0
LINE
  8
12
  5
B78
  6
DIVIDE
 62
5
 10
38.2437
 20
-20.1532
 30
0.0
 11
38.2437
 21
-14.8043
 31
0.0
  0
LINE
  8
12
  5
B7A
  6
DIVIDE
 62
5
 10
38.9422
 20
-20.1175
 30
0.0
 11
38.9422
 21
-14.84
 31
0.0
  0
POLYLINE
  8
12
  5
B7C
  6
DIVIDE
 62
5
 10
0.0
 20
0.0
 30
0.0
 66
1
 70
1
  0
VERTEX
  8
12
  5
B7D
  6
DIVIDE
 62
5
 10
14.9403
 20
-15.9575
 30
0.0
  0
VERTEX
  8
12
  5
B7E
  6
DIVIDE
 62
5
 10
18.1251
 20
-15.9575
 30
0.0
  0
VERTEX
  8
12
  5
B7F
  6
DIVIDE
 62
5
 10
18.1251
 20
-17.5679
 30
0.0
  0
VERTEX
  8
12
  5
B80
  6
DIVIDE
 62
5
 10
14.9403
 20
-17.5679
 30
0.0
  0
SEQEND
  8
12
  5
B81
  0
LINE
  8
10
  5
B83
  6
CONTINUOUS
 62
7
 10
42.4746
 20
-27.4171
 30
0.0
 11
42.4746
 21
-26.6973
 31
0.0
  0
LINE
  8
10
  5
B85
  6
CONTINUOUS
 62
7
 10
42.4746
 20
-8.2603
 30
0.0
 11
42.4746
 21
-7.5403
 31
0.0
  0
POLYLINE
  8
1
  5
B88
  6
CONTINUOUS
 62
3
 10
0.0
 20
0.0
 30
0.0
 66
1
 70
0
  0
VERTEX
  8
1
  5
B89
  6
CONTINUOUS
 62
3
 10
25.527
 20
-28.4067
 30
0.0
  0
VERTEX
  8
1
  5
B8A
  6
CONTINUOUS
 62
3
 10
25.8564
 20
-28.0095
 30
0.0
  0
VERTEX
  8
1
  5
B8B
  6
CONTINUOUS
 62
3
 10
25.7526
 20
-28.515
 30
0.0
  0
SEQEND
  8
1
  5
B8C
  0
LINE
  8
1
  5
B8E
  6
CONTINUOUS
 62
3
 10
25.8564
 20
-28.0095
 30
0.0
 11
24.7343
 21
-30.3476
 31
0.0
  0
TEXT
  8
6
  5
B91
  6
CONTINUOUS
 62
3
 10
20.4846
 20
-31.039
 30
0.0
  1
DAVE BROWN
 40
0.5006
 41
1.0
  7
STANDARD
 72
4
 11
22.8849
 21
-30.7887
 31
0.0
  0
TEXT
  8
6
  5
B93
  6
CONTINUOUS
 62
3
 10
20.9929
 20
-31.8397
 30
0.0
  1
RETRACTS
 40
0.5006
 41
1.0
  7
STANDARD
 72
4
 11
22.8847
 21
-31.5894
 31
0.0
  0
LINE
  8
1
  5
B95
  6
CONTINUOUS
 62
3
 10
63.5653
 20
-17.2913
 30
0.0
 11
72.2592
 21
-17.2913
 31
0.0
  0
LINE
  8
1
  5
B97
  6
CONTINUOUS
 62
3
 10
63.5652
 20
-17.6662
 30
0.0
 11
72.2592
 21
-17.6662
 31
0.0
  0
INSERT
  8
1
  5
B99
  6
CONTINUOUS
 62
7
  2
GA
 10
57.9603
 20
-6.6993
 30
0.0
 41
1.40005
 42
1.40005
 43
1.0
 70
1
 71
1
  0
LINE
  8
34
  5
B9B
  6
CONTINUOUS
 62
7
 10
-13.9727
 20
-2.6424
 30
0.0
 11
-13.9727
 21
-7.5342
 31
0.0
  0
POLYLINE
  8
34
  5
B9D
  6
CONTINUOUS
 62
7
 10
0.0
 20
0.0
 30
0.0
 66
1
 70
0
  0
VERTEX
  8
34
  5
B9E
  6
CONTINUOUS
 62
7
 10
-12.292512
 20
-1.550258
 30
0.0
 42
0.032156
  0
VERTEX
  8
34
  5
B9F
  6
CONTINUOUS
 62
7
 10
-12.62028
 20
-1.571241
 30
0.0
 42
0.033618
  0
VERTEX
  8
34
  5
BA0
  6
CONTINUOUS
 62
7
 10
-12.935452
 20
-1.633385
 30
0.0
 42
0.0367
  0
VERTEX
  8
34
  5
BA1
  6
CONTINUOUS
 62
7
 10
-13.225916
 20
-1.734302
 30
0.0
 42
0.041684
  0
VERTEX
  8
34
  5
BA2
  6
CONTINUOUS
 62
7
 10
-13.480511
 20
-1.870113
 30
0.0
 42
0.048847
  0
VERTEX
  8
34
  5
BA3
  6
CONTINUOUS
 62
7
 10
-13.689451
 20
-2.035599
 30
0.0
 42
0.058022
  0
VERTEX
  8
34
  5
BA4
  6
CONTINUOUS
 62
7
 10
-13.844707
 20
-2.224401
 30
0.0
 42
0.067701
  0
VERTEX
  8
34
  5
BA5
  6
CONTINUOUS
 62
7
 10
-13.940314
 20
-2.429263
 30
0.0
 42
0.074379
  0
VERTEX
  8
34
  5
BA6
  6
CONTINUOUS
 62
7
 10
-13.972596
 20
-2.642313
 30
0.0
 42
0.074379
  0
SEQEND
  8
34
  5
BA7
  0
POLYLINE
  8
34
  5
BA9
  6
CONTINUOUS
 62
7
 10
0.0
 20
0.0
 30
0.0
 66
1
 70
0
  0
VERTEX
  8
34
  5
BAA
  6
CONTINUOUS
 62
7
 10
-12.292512
 20
-8.626409
 30
0.0
 42
-0.032156
  0
VERTEX
  8
34
  5
BAB
  6
CONTINUOUS
 62
7
 10
-12.62028
 20
-8.605426
 30
0.0
 42
-0.033618
  0
VERTEX
  8
34
  5
BAC
  6
CONTINUOUS
 62
7
 10
-12.935452
 20
-8.543282
 30
0.0
 42
-0.0367
  0
VERTEX
  8
34
  5
BAD
  6
CONTINUOUS
 62
7
 10
-13.225916
 20
-8.442365
 30
0.0
 42
-0.041684
  0
VERTEX
  8
34
  5
BAE
  6
CONTINUOUS
 62
7
 10
-13.480511
 20
-8.306554
 30
0.0
 42
-0.048847
  0
VERTEX
  8
34
  5
BAF
  6
CONTINUOUS
 62
7
 10
-13.689451
 20
-8.141068
 30
0.0
 42
-0.058022
  0
VERTEX
  8
34
  5
BB0
  6
CONTINUOUS
 62
7
 10
-13.844707
 20
-7.952266
 30
0.0
 42
-0.067701
  0
VERTEX
  8
34
  5
BB1
  6
CONTINUOUS
 62
7
 10
-13.940314
 20
-7.747404
 30
0.0
 42
-0.074379
  0
VERTEX
  8
34
  5
BB2
  6
CONTINUOUS
 62
7
 10
-13.972596
 20
-7.534354
 30
0.0
 42
-0.074379
  0
SEQEND
  8
34
  5
BB3
  0
LINE
  8
34
  5
BB5
  6
CONTINUOUS
 62
7
 10
-12.2927
 20
-1.5503
 30
0.0
 11
-9.5526
 21
-1.5503
 31
0.0
  0
LINE
  8
34
  5
BB7
  6
CONTINUOUS
 62
7
 10
-12.2927
 20
-8.6262
 30
0.0
 11
-9.5526
 21
-8.6262
 31
0.0
  0
POLYLINE
  8
34
  5
BB9
  6
CONTINUOUS
 62
7
 10
0.0
 20
0.0
 30
0.0
 66
1
 70
0
  0
VERTEX
  8
34
  5
BBA
  6
CONTINUOUS
 62
7
 10
-9.552374
 20
-1.550258
 30
0.0
 42
-0.032156
  0
VERTEX
  8
34
  5
BBB
  6
CONTINUOUS
 62
7
 10
-9.224606
 20
-1.571241
 30
0.0
 42
-0.033618
  0
VERTEX
  8
34
  5
BBC
  6
CONTINUOUS
 62
7
 10
-8.909433
 20
-1.633385
 30
0.0
 42
-0.0367
  0
VERTEX
  8
34
  5
BBD
  6
CONTINUOUS
 62
7
 10
-8.618969
 20
-1.734302
 30
0.0
 42
-0.041684
  0
VERTEX
  8
34
  5
BBE
  6
CONTINUOUS
 62
7
 10
-8.364375
 20
-1.870113
 30
0.0
 42
-0.048847
  0
VERTEX
  8
34
  5
BBF
  6
CONTINUOUS
 62
7
 10
-8.155435
 20
-2.035599
 30
0.0
 42
-0.058022
  0
VERTEX
  8
34
  5
BC0
  6
CONTINUOUS
 62
7
 10
-8.000178
 20
-2.224401
 30
0.0
 42
-0.067701
  0
VERTEX
  8
34
  5
BC1
  6
CONTINUOUS
 62
7
 10
-7.904572
 20
-2.429263
 30
0.0
 42
-0.074379
  0
VERTEX
  8
34
  5
BC2
  6
CONTINUOUS
 62
7
 10
-7.872289
 20
-2.642313
 30
0.0
 42
-0.074379
  0
SEQEND
  8
34
  5
BC3
  0
POLYLINE
  8
34
  5
BC5
  6
CONTINUOUS
 62
7
 10
0.0
 20
0.0
 30
0.0
 66
1
 70
0
  0
VERTEX
  8
34
  5
BC6
  6
CONTINUOUS
 62
7
 10
-9.552374
 20
-8.626409
 30
0.0
 42
0.032156
  0
VERTEX
  8
34
  5
BC7
  6
CONTINUOUS
 62
7
 10
-9.224606
 20
-8.605426
 30
0.0
 42
0.033618
  0
VERTEX
  8
34
  5
BC8
  6
CONTINUOUS
 62
7
 10
-8.909433
 20
-8.543282
 30
0.0
 42
0.0367
  0
VERTEX
  8
34
  5
BC9
  6
CONTINUOUS
 62
7
 10
-8.618969
 20
-8.442365
 30
0.0
 42
0.041684
  0
VERTEX
  8
34
  5
BCA
  6
CONTINUOUS
 62
7
 10
-8.364375
 20
-8.306554
 30
0.0
 42
0.048847
  0
VERTEX
  8
34
  5
BCB
  6
CONTINUOUS
 62
7
 10
-8.155435
 20
-8.141068
 30
0.0
 42
0.058022
  0
VERTEX
  8
34
  5
BCC
  6
CONTINUOUS
 62
7
 10
-8.000178
 20
-7.952266
 30
0.0
 42
0.067701
  0
VERTEX
  8
34
  5
BCD
  6
CONTINUOUS
 62
7
 10
-7.904572
 20
-7.747404
 30
0.0
 42
0.074379
  0
VERTEX
  8
34
  5
BCE
  6
CONTINUOUS
 62
7
 10
-7.872289
 20
-7.534354
 30
0.0
 42
0.074379
  0
SEQEND
  8
34
  5
BCF
  0
LINE
  8
34
  5
BD1
  6
CONTINUOUS
 62
7
 10
-12.2927
 20
-8.6262
 30
0.0
 11
-9.5526
 21
-8.6262
 31
0.0
  0
LINE
  8
34
  5
BD3
  6
CONTINUOUS
 62
7
 10
-7.8725
 20
-5.2136
 30
0.0
 11
-10.9158
 21
-5.2136
 31
0.0
  0
LINE
  8
34
  5
BD5
  6
CONTINUOUS
 62
7
 10
-10.9158
 20
-5.2136
 30
0.0
 11
-10.9158
 21
-6.3513
 31
0.0
  0
LINE
  8
34
  5
BD7
  6
CONTINUOUS
 62
7
 10
-9.6225
 20
-4.0786
 30
0.0
 11
-7.8725
 21
-3.5259
 31
0.0
  0
LINE
  8
34
  5
BD9
  6
CONTINUOUS
 62
7
 10
-7.8725
 20
-2.6424
 30
0.0
 11
-7.8725
 21
-3.5259
 31
0.0
  0
LINE
  8
34
  5
BDB
  6
CONTINUOUS
 62
7
 10
-7.8725
 20
-5.2136
 30
0.0
 11
-7.8725
 21
-7.5342
 31
0.0
  0
LINE
  8
34
  5
BDD
  6
CONTINUOUS
 62
7
 10
-9.6225
 20
-6.3513
 30
0.0
 11
-9.6225
 21
-7.1247
 31
0.0
  0
LINE
  8
34
  5
BDF
  6
CONTINUOUS
 62
7
 10
-9.6225
 20
-6.3513
 30
0.0
 11
-10.9158
 21
-6.3513
 31
0.0
  0
LINE
  8
34
  5
BE1
  6
CONTINUOUS
 62
7
 10
-11.6627
 20
-7.4887
 30
0.0
 11
-10.1825
 21
-7.4887
 31
0.0
  0
LINE
  8
34
  5
BE3
  6
CONTINUOUS
 62
7
 10
-12.2227
 20
-3.0518
 30
0.0
 11
-12.2227
 21
-7.1247
 31
0.0
  0
LINE
  8
34
  5
BE5
  6
CONTINUOUS
 62
7
 10
-11.6627
 20
-2.6879
 30
0.0
 11
-10.1825
 21
-2.6879
 31
0.0
  0
LINE
  8
34
  5
BE7
  6
CONTINUOUS
 62
7
 10
-9.6225
 20
-3.0518
 30
0.0
 11
-9.6225
 21
-4.0786
 31
0.0
  0
POLYLINE
  8
34
  5
BE9
  6
CONTINUOUS
 62
7
 10
0.0
 20
0.0
 30
0.0
 66
1
 70
0
  0
VERTEX
  8
34
  5
BEA
  6
CONTINUOUS
 62
7
 10
-9.622377
 20
-3.051833
 30
0.0
 42
0.074379
  0
VERTEX
  8
34
  5
BEB
  6
CONTINUOUS
 62
7
 10
-9.633138
 20
-2.980817
 30
0.0
 42
0.067701
  0
VERTEX
  8
34
  5
BEC
  6
CONTINUOUS
 62
7
 10
-9.665007
 20
-2.912529
 30
0.0
 42
0.058022
  0
VERTEX
  8
34
  5
BED
  6
CONTINUOUS
 62
7
 10
-9.716759
 20
-2.849595
 30
0.0
 42
0.048847
  0
VERTEX
  8
34
  5
BEE
  6
CONTINUOUS
 62
7
 10
-9.786406
 20
-2.794433
 30
0.0
 42
0.041684
  0
VERTEX
  8
34
  5
BEF
  6
CONTINUOUS
 62
7
 10
-9.871271
 20
-2.749163
 30
0.0
 42
0.0367
  0
VERTEX
  8
34
  5
BF0
  6
CONTINUOUS
 62
7
 10
-9.968092
 20
-2.715524
 30
0.0
 42
0.033618
  0
VERTEX
  8
34
  5
BF1
  6
CONTINUOUS
 62
7
 10
-10.073149
 20
-2.694809
 30
0.0
 42
0.032156
  0
VERTEX
  8
34
  5
BF2
  6
CONTINUOUS
 62
7
 10
-10.182406
 20
-2.687815
 30
0.0
 42
0.032156
  0
SEQEND
  8
34
  5
BF3
  0
POLYLINE
  8
34
  5
BF5
  6
CONTINUOUS
 62
7
 10
0.0
 20
0.0
 30
0.0
 66
1
 70
0
  0
VERTEX
  8
34
  5
BF6
  6
CONTINUOUS
 62
7
 10
-11.66248
 20
-2.687815
 30
0.0
 42
0.032156
  0
VERTEX
  8
34
  5
BF7
  6
CONTINUOUS
 62
7
 10
-11.771736
 20
-2.694809
 30
0.0
 42
0.033618
  0
VERTEX
  8
34
  5
BF8
  6
CONTINUOUS
 62
7
 10
-11.876793
 20
-2.715524
 30
0.0
 42
0.0367
  0
VERTEX
  8
34
  5
BF9
  6
CONTINUOUS
 62
7
 10
-11.973615
 20
-2.749163
 30
0.0
 42
0.041684
  0
VERTEX
  8
34
  5
BFA
  6
CONTINUOUS
 62
7
 10
-12.05848
 20
-2.794433
 30
0.0
 42
0.048847
  0
VERTEX
  8
34
  5
BFB
  6
CONTINUOUS
 62
7
 10
-12.128126
 20
-2.849595
 30
0.0
 42
0.058022
  0
VERTEX
  8
34
  5
BFC
  6
CONTINUOUS
 62
7
 10
-12.179878
 20
-2.912529
 30
0.0
 42
0.067701
  0
VERTEX
  8
34
  5
BFD
  6
CONTINUOUS
 62
7
 10
-12.211747
 20
-2.980817
 30
0.0
 42
0.074379
  0
VERTEX
  8
34
  5
BFE
  6
CONTINUOUS
 62
7
 10
-12.222508
 20
-3.051833
 30
0.0
 42
0.074379
  0
SEQEND
  8
34
  5
BFF
  0
POLYLINE
  8
34
  5
C01
  6
CONTINUOUS
 62
7
 10
0.0
 20
0.0
 30
0.0
 66
1
 70
0
  0
VERTEX
  8
34
  5
C02
  6
CONTINUOUS
 62
7
 10
-9.622377
 20
-7.124834
 30
0.0
 42
-0.074379
  0
VERTEX
  8
34
  5
C03
  6
CONTINUOUS
 62
7
 10
-9.633138
 20
-7.19585
 30
0.0
 42
-0.067701
  0
VERTEX
  8
34
  5
C04
  6
CONTINUOUS
 62
7
 10
-9.665007
 20
-7.264138
 30
0.0
 42
-0.058022
  0
VERTEX
  8
34
  5
C05
  6
CONTINUOUS
 62
7
 10
-9.716759
 20
-7.327072
 30
0.0
 42
-0.048847
  0
VERTEX
  8
34
  5
C06
  6
CONTINUOUS
 62
7
 10
-9.786406
 20
-7.382234
 30
0.0
 42
-0.041684
  0
VERTEX
  8
34
  5
C07
  6
CONTINUOUS
 62
7
 10
-9.871271
 20
-7.427504
 30
0.0
 42
-0.0367
  0
VERTEX
  8
34
  5
C08
  6
CONTINUOUS
 62
7
 10
-9.968092
 20
-7.461143
 30
0.0
 42
-0.033618
  0
VERTEX
  8
34
  5
C09
  6
CONTINUOUS
 62
7
 10
-10.073149
 20
-7.481858
 30
0.0
 42
-0.032156
  0
VERTEX
  8
34
  5
C0A
  6
CONTINUOUS
 62
7
 10
-10.182406
 20
-7.488852
 30
0.0
 42
-0.032156
  0
SEQEND
  8
34
  5
C0B
  0
POLYLINE
  8
34
  5
C0D
  6
CONTINUOUS
 62
7
 10
0.0
 20
0.0
 30
0.0
 66
1
 70
0
  0
VERTEX
  8
34
  5
C0E
  6
CONTINUOUS
 62
7
 10
-11.66248
 20
-7.488852
 30
0.0
 42
-0.032156
  0
VERTEX
  8
34
  5
C0F
  6
CONTINUOUS
 62
7
 10
-11.771736
 20
-7.481858
 30
0.0
 42
-0.033618
  0
VERTEX
  8
34
  5
C10
  6
CONTINUOUS
 62
7
 10
-11.876793
 20
-7.461143
 30
0.0
 42
-0.0367
  0
VERTEX
  8
34
  5
C11
  6
CONTINUOUS
 62
7
 10
-11.973615
 20
-7.427504
 30
0.0
 42
-0.041684
  0
VERTEX
  8
34
  5
C12
  6
CONTINUOUS
 62
7
 10
-12.05848
 20
-7.382234
 30
0.0
 42
-0.048847
  0
VERTEX
  8
34
  5
C13
  6
CONTINUOUS
 62
7
 10
-12.128126
 20
-7.327072
 30
0.0
 42
-0.058022
  0
VERTEX
  8
34
  5
C14
  6
CONTINUOUS
 62
7
 10
-12.179878
 20
-7.264138
 30
0.0
 42
-0.067701
  0
VERTEX
  8
34
  5
C15
  6
CONTINUOUS
 62
7
 10
-12.211747
 20
-7.19585
 30
0.0
 42
-0.074379
  0
VERTEX
  8
34
  5
C16
  6
CONTINUOUS
 62
7
 10
-12.222508
 20
-7.124834
 30
0.0
 42
-0.074379
  0
SEQEND
  8
34
  5
C17
  0
LINE
  8
34
  5
C19
  6
CONTINUOUS
 62
7
 10
-6.3162
 20
-4.5311
 30
0.0
 11
-2.4378
 21
-4.5311
 31
0.0
  0
LINE
  8
34
  5
C1B
  6
CONTINUOUS
 62
7
 10
-6.3162
 20
-5.6686
 30
0.0
 11
-2.4378
 21
-5.6686
 31
0.0
  0
LINE
  8
34
  5
C1D
  6
CONTINUOUS
 62
7
 10
-6.3162
 20
-4.5311
 30
0.0
 11
-6.3162
 21
-5.6686
 31
0.0
  0
LINE
  8
34
  5
C1F
  6
CONTINUOUS
 62
7
 10
-2.4378
 20
-4.5311
 30
0.0
 11
-2.4378
 21
-5.6686
 31
0.0
  0
LINE
  8
34
  5
C21
  6
CONTINUOUS
 62
7
 10
4.4927
 20
-1.5972
 30
0.0
 11
2.9806
 21
-1.5972
 31
0.0
  0
LINE
  8
34
  5
C23
  6
CONTINUOUS
 62
7
 10
0.5613
 20
-8.6731
 30
0.0
 11
2.9806
 21
-1.5972
 31
0.0
  0
LINE
  8
34
  5
C25
  6
CONTINUOUS
 62
7
 10
4.4927
 20
-1.5972
 30
0.0
 11
6.912
 21
-8.6731
 31
0.0
  0
LINE
  8
34
  5
C27
  6
CONTINUOUS
 62
7
 10
2.636
 20
-7.5568
 30
0.0
 11
4.8364
 21
-7.5568
 31
0.0
  0
LINE
  8
34
  5
C29
  6
CONTINUOUS
 62
7
 10
3.0247
 20
-6.4194
 30
0.0
 11
4.4477
 21
-6.4194
 31
0.0
  0
LINE
  8
34
  5
C2B
  6
CONTINUOUS
 62
7
 10
6.912
 20
-8.6731
 30
0.0
 11
5.2182
 21
-8.6731
 31
0.0
  0
LINE
  8
34
  5
C2D
  6
CONTINUOUS
 62
7
 10
2.2543
 20
-8.6731
 30
0.0
 11
0.5613
 21
-8.6731
 31
0.0
  0
LINE
  8
34
  5
C2F
  6
CONTINUOUS
 62
7
 10
3.7362
 20
-4.3388
 30
0.0
 11
4.4477
 21
-6.4194
 31
0.0
  0
LINE
  8
34
  5
C31
  6
CONTINUOUS
 62
7
 10
4.8364
 20
-7.5568
 30
0.0
 11
5.2182
 21
-8.6731
 31
0.0
  0
LINE
  8
34
  5
C33
  6
CONTINUOUS
 62
7
 10
3.0247
 20
-6.4194
 30
0.0
 11
3.7362
 21
-4.3388
 31
0.0
  0
LINE
  8
34
  5
C35
  6
CONTINUOUS
 62
7
 10
2.2543
 20
-8.6731
 30
0.0
 11
2.636
 21
-7.5568
 31
0.0
  0
POLYLINE
  8
34
  5
C37
  6
CONTINUOUS
 62
7
 10
0.0
 20
0.0
 30
0.0
 66
1
 70
0
  0
VERTEX
  8
34
  5
C38
  6
CONTINUOUS
 62
7
 10
1.980221
 20
-10.113076
 30
0.0
 42
0.032156
  0
VERTEX
  8
34
  5
C39
  6
CONTINUOUS
 62
7
 10
1.652453
 20
-10.13406
 30
0.0
 42
0.033618
  0
VERTEX
  8
34
  5
C3A
  6
CONTINUOUS
 62
7
 10
1.33728
 20
-10.196204
 30
0.0
 42
0.0367
  0
VERTEX
  8
34
  5
C3B
  6
CONTINUOUS
 62
7
 10
1.046816
 20
-10.297121
 30
0.0
 42
0.041684
  0
VERTEX
  8
34
  5
C3C
  6
CONTINUOUS
 62
7
 10
0.792222
 20
-10.432932
 30
0.0
 42
0.048847
  0
VERTEX
  8
34
  5
C3D
  6
CONTINUOUS
 62
7
 10
0.583282
 20
-10.598418
 30
0.0
 42
0.058022
  0
VERTEX
  8
34
  5
C3E
  6
CONTINUOUS
 62
7
 10
0.428025
 20
-10.78722
 30
0.0
 42
0.067701
  0
VERTEX
  8
34
  5
C3F
  6
CONTINUOUS
 62
7
 10
0.332419
 20
-10.992082
 30
0.0
 42
0.074379
  0
VERTEX
  8
34
  5
C40
  6
CONTINUOUS
 62
7
 10
0.300136
 20
-11.205131
 30
0.0
 42
0.074379
  0
SEQEND
  8
34
  5
C41
  0
POLYLINE
  8
34
  5
C43
  6
CONTINUOUS
 62
7
 10
0.0
 20
0.0
 30
0.0
 66
1
 70
0
  0
VERTEX
  8
34
  5
C44
  6
CONTINUOUS
 62
7
 10
1.980221
 20
-17.189228
 30
0.0
 42
-0.032156
  0
VERTEX
  8
34
  5
C45
  6
CONTINUOUS
 62
7
 10
1.652453
 20
-17.168245
 30
0.0
 42
-0.033618
  0
VERTEX
  8
34
  5
C46
  6
CONTINUOUS
 62
7
 10
1.33728
 20
-17.1061
 30
0.0
 42
-0.0367
  0
VERTEX
  8
34
  5
C47
  6
CONTINUOUS
 62
7
 10
1.046816
 20
-17.005184
 30
0.0
 42
-0.041684
  0
VERTEX
  8
34
  5
C48
  6
CONTINUOUS
 62
7
 10
0.792222
 20
-16.869373
 30
0.0
 42
-0.048847
  0
VERTEX
  8
34
  5
C49
  6
CONTINUOUS
 62
7
 10
0.583282
 20
-16.703886
 30
0.0
 42
-0.058022
  0
VERTEX
  8
34
  5
C4A
  6
CONTINUOUS
 62
7
 10
0.428025
 20
-16.515084
 30
0.0
 42
-0.067701
  0
VERTEX
  8
34
  5
C4B
  6
CONTINUOUS
 62
7
 10
0.332419
 20
-16.310222
 30
0.0
 42
-0.074379
  0
VERTEX
  8
34
  5
C4C
  6
CONTINUOUS
 62
7
 10
0.300136
 20
-16.097173
 30
0.0
 42
-0.074379
  0
SEQEND
  8
34
  5
C4D
  0
LINE
  8
34
  5
C4F
  6
CONTINUOUS
 62
7
 10
1.9801
 20
-10.1132
 30
0.0
 11
4.7203
 21
-10.1132
 31
0.0
  0
LINE
  8
34
  5
C51
  6
CONTINUOUS
 62
7
 10
1.9801
 20
-17.1891
 30
0.0
 11
4.7203
 21
-17.1891
 31
0.0
  0
POLYLINE
  8
34
  5
C53
  6
CONTINUOUS
 62
7
 10
0.0
 20
0.0
 30
0.0
 66
1
 70
0
  0
VERTEX
  8
34
  5
C54
  6
CONTINUOUS
 62
7
 10
4.720359
 20
-10.113076
 30
0.0
 42
-0.032156
  0
VERTEX
  8
34
  5
C55
  6
CONTINUOUS
 62
7
 10
5.048127
 20
-10.13406
 30
0.0
 42
-0.033618
  0
VERTEX
  8
34
  5
C56
  6
CONTINUOUS
 62
7
 10
5.363299
 20
-10.196204
 30
0.0
 42
-0.0367
  0
VERTEX
  8
34
  5
C57
  6
CONTINUOUS
 62
7
 10
5.653764
 20
-10.297121
 30
0.0
 42
-0.041684
  0
VERTEX
  8
34
  5
C58
  6
CONTINUOUS
 62
7
 10
5.908358
 20
-10.432932
 30
0.0
 42
-0.048847
  0
VERTEX
  8
34
  5
C59
  6
CONTINUOUS
 62
7
 10
6.117298
 20
-10.598418
 30
0.0
 42
-0.058022
  0
VERTEX
  8
34
  5
C5A
  6
CONTINUOUS
 62
7
 10
6.272554
 20
-10.78722
 30
0.0
 42
-0.067701
  0
VERTEX
  8
34
  5
C5B
  6
CONTINUOUS
 62
7
 10
6.368161
 20
-10.992082
 30
0.0
 42
-0.074379
  0
VERTEX
  8
34
  5
C5C
  6
CONTINUOUS
 62
7
 10
6.400443
 20
-11.205131
 30
0.0
 42
-0.074379
  0
SEQEND
  8
34
  5
C5D
  0
POLYLINE
  8
34
  5
C5F
  6
CONTINUOUS
 62
7
 10
0.0
 20
0.0
 30
0.0
 66
1
 70
0
  0
VERTEX
  8
34
  5
C60
  6
CONTINUOUS
 62
7
 10
4.720359
 20
-17.189228
 30
0.0
 42
0.032156
  0
VERTEX
  8
34
  5
C61
  6
CONTINUOUS
 62
7
 10
5.048127
 20
-17.168245
 30
0.0
 42
0.033618
  0
VERTEX
  8
34
  5
C62
  6
CONTINUOUS
 62
7
 10
5.363299
 20
-17.1061
 30
0.0
 42
0.0367
  0
VERTEX
  8
34
  5
C63
  6
CONTINUOUS
 62
7
 10
5.653764
 20
-17.005184
 30
0.0
 42
0.041684
  0
VERTEX
  8
34
  5
C64
  6
CONTINUOUS
 62
7
 10
5.908358
 20
-16.869373
 30
0.0
 42
0.048847
  0
VERTEX
  8
34
  5
C65
  6
CONTINUOUS
 62
7
 10
6.117298
 20
-16.703886
 30
0.0
 42
0.058022
  0
VERTEX
  8
34
  5
C66
  6
CONTINUOUS
 62
7
 10
6.272554
 20
-16.515084
 30
0.0
 42
0.067701
  0
VERTEX
  8
34
  5
C67
  6
CONTINUOUS
 62
7
 10
6.368161
 20
-16.310222
 30
0.0
 42
0.074379
  0
VERTEX
  8
34
  5
C68
  6
CONTINUOUS
 62
7
 10
6.400443
 20
-16.097173
 30
0.0
 42
0.074379
  0
SEQEND
  8
34
  5
C69
  0
LINE
  8
34
  5
C6B
  6
CONTINUOUS
 62
7
 10
1.9801
 20
-17.1891
 30
0.0
 11
4.7203
 21
-17.1891
 31
0.0
  0
LINE
  8
34
  5
C6D
  6
CONTINUOUS
 62
7
 10
2.6103
 20
-16.0515
 30
0.0
 11
4.0904
 21
-16.0515
 31
0.0
  0
LINE
  8
34
  5
C6F
  6
CONTINUOUS
 62
7
 10
2.6103
 20
-11.2507
 30
0.0
 11
4.0904
 21
-11.2507
 31
0.0
  0
POLYLINE
  8
34
  5
C71
  6
CONTINUOUS
 62
7
 10
0.0
 20
0.0
 30
0.0
 66
1
 70
0
  0
VERTEX
  8
34
  5
C72
  6
CONTINUOUS
 62
7
 10
2.610253
 20
-16.051671
 30
0.0
 42
-0.032156
  0
VERTEX
  8
34
  5
C73
  6
CONTINUOUS
 62
7
 10
2.500996
 20
-16.044676
 30
0.0
 42
-0.033618
  0
VERTEX
  8
34
  5
C74
  6
CONTINUOUS
 62
7
 10
2.395939
 20
-16.023962
 30
0.0
 42
-0.0367
  0
VERTEX
  8
34
  5
C75
  6
CONTINUOUS
 62
7
 10
2.299118
 20
-15.990323
 30
0.0
 42
-0.041684
  0
VERTEX
  8
34
  5
C76
  6
CONTINUOUS
 62
7
 10
2.214253
 20
-15.945052
 30
0.0
 42
-0.048847
  0
VERTEX
  8
34
  5
C77
  6
CONTINUOUS
 62
7
 10
2.144606
 20
-15.88989
 30
0.0
 42
-0.058022
  0
VERTEX
  8
34
  5
C78
  6
CONTINUOUS
 62
7
 10
2.092854
 20
-15.826956
 30
0.0
 42
-0.067701
  0
VERTEX
  8
34
  5
C79
  6
CONTINUOUS
 62
7
 10
2.060985
 20
-15.758669
 30
0.0
 42
-0.074379
  0
VERTEX
  8
34
  5
C7A
  6
CONTINUOUS
 62
7
 10
2.050224
 20
-15.687653
 30
0.0
 42
-0.074379
  0
SEQEND
  8
34
  5
C7B
  0
POLYLINE
  8
34
  5
C7D
  6
CONTINUOUS
 62
7
 10
0.0
 20
0.0
 30
0.0
 66
1
 70
0
  0
VERTEX
  8
34
  5
C7E
  6
CONTINUOUS
 62
7
 10
2.610253
 20
-11.250634
 30
0.0
 42
0.032156
  0
VERTEX
  8
34
  5
C7F
  6
CONTINUOUS
 62
7
 10
2.500996
 20
-11.257628
 30
0.0
 42
0.033618
  0
VERTEX
  8
34
  5
C80
  6
CONTINUOUS
 62
7
 10
2.395939
 20
-11.278343
 30
0.0
 42
0.0367
  0
VERTEX
  8
34
  5
C81
  6
CONTINUOUS
 62
7
 10
2.299118
 20
-11.311982
 30
0.0
 42
0.041684
  0
VERTEX
  8
34
  5
C82
  6
CONTINUOUS
 62
7
 10
2.214253
 20
-11.357252
 30
0.0
 42
0.048847
  0
VERTEX
  8
34
  5
C83
  6
CONTINUOUS
 62
7
 10
2.144606
 20
-11.412414
 30
0.0
 42
0.058022
  0
VERTEX
  8
34
  5
C84
  6
CONTINUOUS
 62
7
 10
2.092854
 20
-11.475348
 30
0.0
 42
0.067701
  0
VERTEX
  8
34
  5
C85
  6
CONTINUOUS
 62
7
 10
2.060985
 20
-11.543635
 30
0.0
 42
0.074379
  0
VERTEX
  8
34
  5
C86
  6
CONTINUOUS
 62
7
 10
2.050224
 20
-11.614652
 30
0.0
 42
0.074379
  0
SEQEND
  8
34
  5
C87
  0
POLYLINE
  8
34
  5
C89
  6
CONTINUOUS
 62
7
 10
0.0
 20
0.0
 30
0.0
 66
1
 70
0
  0
VERTEX
  8
34
  5
C8A
  6
CONTINUOUS
 62
7
 10
4.090327
 20
-11.250634
 30
0.0
 42
-0.032156
  0
VERTEX
  8
34
  5
C8B
  6
CONTINUOUS
 62
7
 10
4.199583
 20
-11.257628
 30
0.0
 42
-0.033618
  0
VERTEX
  8
34
  5
C8C
  6
CONTINUOUS
 62
7
 10
4.30464
 20
-11.278343
 30
0.0
 42
-0.0367
  0
VERTEX
  8
34
  5
C8D
  6
CONTINUOUS
 62
7
 10
4.401462
 20
-11.311982
 30
0.0
 42
-0.041684
  0
VERTEX
  8
34
  5
C8E
  6
CONTINUOUS
 62
7
 10
4.486327
 20
-11.357252
 30
0.0
 42
-0.048847
  0
VERTEX
  8
34
  5
C8F
  6
CONTINUOUS
 62
7
 10
4.555973
 20
-11.412414
 30
0.0
 42
-0.058022
  0
VERTEX
  8
34
  5
C90
  6
CONTINUOUS
 62
7
 10
4.607725
 20
-11.475348
 30
0.0
 42
-0.067701
  0
VERTEX
  8
34
  5
C91
  6
CONTINUOUS
 62
7
 10
4.639594
 20
-11.543635
 30
0.0
 42
-0.074379
  0
VERTEX
  8
34
  5
C92
  6
CONTINUOUS
 62
7
 10
4.650355
 20
-11.614652
 30
0.0
 42
-0.074379
  0
SEQEND
  8
34
  5
C93
  0
POLYLINE
  8
34
  5
C95
  6
CONTINUOUS
 62
7
 10
0.0
 20
0.0
 30
0.0
 66
1
 70
0
  0
VERTEX
  8
34
  5
C96
  6
CONTINUOUS
 62
7
 10
4.650355
 20
-15.687653
 30
0.0
 42
-0.074379
  0
VERTEX
  8
34
  5
C97
  6
CONTINUOUS
 62
7
 10
4.639594
 20
-15.758669
 30
0.0
 42
-0.067701
  0
VERTEX
  8
34
  5
C98
  6
CONTINUOUS
 62
7
 10
4.607725
 20
-15.826956
 30
0.0
 42
-0.058022
  0
VERTEX
  8
34
  5
C99
  6
CONTINUOUS
 62
7
 10
4.555973
 20
-15.88989
 30
0.0
 42
-0.048847
  0
VERTEX
  8
34
  5
C9A
  6
CONTINUOUS
 62
7
 10
4.486327
 20
-15.945052
 30
0.0
 42
-0.041684
  0
VERTEX
  8
34
  5
C9B
  6
CONTINUOUS
 62
7
 10
4.401462
 20
-15.990323
 30
0.0
 42
-0.0367
  0
VERTEX
  8
34
  5
C9C
  6
CONTINUOUS
 62
7
 10
4.30464
 20
-16.023962
 30
0.0
 42
-0.033618
  0
VERTEX
  8
34
  5
C9D
  6
CONTINUOUS
 62
7
 10
4.199583
 20
-16.044676
 30
0.0
 42
-0.032156
  0
VERTEX
  8
34
  5
C9E
  6
CONTINUOUS
 62
7
 10
4.090327
 20
-16.051671
 30
0.0
 42
-0.032156
  0
SEQEND
  8
34
  5
C9F
  0
LINE
  8
34
  5
CA1
  6
CONTINUOUS
 62
7
 10
-14.3295
 20
-11.2052
 30
0.0
 11
-14.3295
 21
-16.097
 31
0.0
  0
POLYLINE
  8
34
  5
CA3
  6
CONTINUOUS
 62
7
 10
0.0
 20
0.0
 30
0.0
 66
1
 70
0
  0
VERTEX
  8
34
  5
CA4
  6
CONTINUOUS
 62
7
 10
-12.649434
 20
-10.113076
 30
0.0
 42
0.032156
  0
VERTEX
  8
34
  5
CA5
  6
CONTINUOUS
 62
7
 10
-12.977203
 20
-10.13406
 30
0.0
 42
0.033618
  0
VERTEX
  8
34
  5
CA6
  6
CONTINUOUS
 62
7
 10
-13.292375
 20
-10.196204
 30
0.0
 42
0.0367
  0
VERTEX
  8
34
  5
CA7
  6
CONTINUOUS
 62
7
 10
-13.582839
 20
-10.297121
 30
0.0
 42
0.041684
  0
VERTEX
  8
34
  5
CA8
  6
CONTINUOUS
 62
7
 10
-13.837433
 20
-10.432932
 30
0.0
 42
0.048847
  0
VERTEX
  8
34
  5
CA9
  6
CONTINUOUS
 62
7
 10
-14.046374
 20
-10.598418
 30
0.0
 42
0.058022
  0
VERTEX
  8
34
  5
CAA
  6
CONTINUOUS
 62
7
 10
-14.20163
 20
-10.78722
 30
0.0
 42
0.067701
  0
VERTEX
  8
34
  5
CAB
  6
CONTINUOUS
 62
7
 10
-14.297236
 20
-10.992082
 30
0.0
 42
0.074379
  0
VERTEX
  8
34
  5
CAC
  6
CONTINUOUS
 62
7
 10
-14.329519
 20
-11.205131
 30
0.0
 42
0.074379
  0
SEQEND
  8
34
  5
CAD
  0
POLYLINE
  8
34
  5
CAF
  6
CONTINUOUS
 62
7
 10
0.0
 20
0.0
 30
0.0
 66
1
 70
0
  0
VERTEX
  8
34
  5
CB0
  6
CONTINUOUS
 62
7
 10
-12.649434
 20
-17.189228
 30
0.0
 42
-0.032156
  0
VERTEX
  8
34
  5
CB1
  6
CONTINUOUS
 62
7
 10
-12.977203
 20
-17.168245
 30
0.0
 42
-0.033618
  0
VERTEX
  8
34
  5
CB2
  6
CONTINUOUS
 62
7
 10
-13.292375
 20
-17.1061
 30
0.0
 42
-0.0367
  0
VERTEX
  8
34
  5
CB3
  6
CONTINUOUS
 62
7
 10
-13.582839
 20
-17.005184
 30
0.0
 42
-0.041684
  0
VERTEX
  8
34
  5
CB4
  6
CONTINUOUS
 62
7
 10
-13.837433
 20
-16.869373
 30
0.0
 42
-0.048847
  0
VERTEX
  8
34
  5
CB5
  6
CONTINUOUS
 62
7
 10
-14.046374
 20
-16.703886
 30
0.0
 42
-0.058022
  0
VERTEX
  8
34
  5
CB6
  6
CONTINUOUS
 62
7
 10
-14.20163
 20
-16.515084
 30
0.0
 42
-0.067701
  0
VERTEX
  8
34
  5
CB7
  6
CONTINUOUS
 62
7
 10
-14.297236
 20
-16.310222
 30
0.0
 42
-0.074379
  0
VERTEX
  8
34
  5
CB8
  6
CONTINUOUS
 62
7
 10
-14.329519
 20
-16.097173
 30
0.0
 42
-0.074379
  0
SEQEND
  8
34
  5
CB9
  0
LINE
  8
34
  5
CBB
  6
CONTINUOUS
 62
7
 10
-12.6495
 20
-10.1132
 30
0.0
 11
-9.9093
 21
-10.1132
 31
0.0
  0
LINE
  8
34
  5
CBD
  6
CONTINUOUS
 62
7
 10
-12.6495
 20
-17.1891
 30
0.0
 11
-9.9093
 21
-17.1891
 31
0.0
  0
POLYLINE
  8
34
  5
CBF
  6
CONTINUOUS
 62
7
 10
0.0
 20
0.0
 30
0.0
 66
1
 70
0
  0
VERTEX
  8
34
  5
CC0
  6
CONTINUOUS
 62
7
 10
-9.909297
 20
-10.113076
 30
0.0
 42
-0.032156
  0
VERTEX
  8
34
  5
CC1
  6
CONTINUOUS
 62
7
 10
-9.581528
 20
-10.13406
 30
0.0
 42
-0.033618
  0
VERTEX
  8
34
  5
CC2
  6
CONTINUOUS
 62
7
 10
-9.266356
 20
-10.196204
 30
0.0
 42
-0.0367
  0
VERTEX
  8
34
  5
CC3
  6
CONTINUOUS
 62
7
 10
-8.975892
 20
-10.297121
 30
0.0
 42
-0.041684
  0
VERTEX
  8
34
  5
CC4
  6
CONTINUOUS
 62
7
 10
-8.721298
 20
-10.432932
 30
0.0
 42
-0.048847
  0
VERTEX
  8
34
  5
CC5
  6
CONTINUOUS
 62
7
 10
-8.512358
 20
-10.598418
 30
0.0
 42
-0.058022
  0
VERTEX
  8
34
  5
CC6
  6
CONTINUOUS
 62
7
 10
-8.357101
 20
-10.78722
 30
0.0
 42
-0.067701
  0
VERTEX
  8
34
  5
CC7
  6
CONTINUOUS
 62
7
 10
-8.261495
 20
-10.992082
 30
0.0
 42
-0.074379
  0
VERTEX
  8
34
  5
CC8
  6
CONTINUOUS
 62
7
 10
-8.229212
 20
-11.205131
 30
0.0
 42
-0.074379
  0
SEQEND
  8
34
  5
CC9
  0
POLYLINE
  8
34
  5
CCB
  6
CONTINUOUS
 62
7
 10
0.0
 20
0.0
 30
0.0
 66
1
 70
0
  0
VERTEX
  8
34
  5
CCC
  6
CONTINUOUS
 62
7
 10
-9.909297
 20
-17.189228
 30
0.0
 42
0.032156
  0
VERTEX
  8
34
  5
CCD
  6
CONTINUOUS
 62
7
 10
-9.581528
 20
-17.168245
 30
0.0
 42
0.033618
  0
VERTEX
  8
34
  5
CCE
  6
CONTINUOUS
 62
7
 10
-9.266356
 20
-17.1061
 30
0.0
 42
0.0367
  0
VERTEX
  8
34
  5
CCF
  6
CONTINUOUS
 62
7
 10
-8.975892
 20
-17.005184
 30
0.0
 42
0.041684
  0
VERTEX
  8
34
  5
CD0
  6
CONTINUOUS
 62
7
 10
-8.721298
 20
-16.869373
 30
0.0
 42
0.048847
  0
VERTEX
  8
34
  5
CD1
  6
CONTINUOUS
 62
7
 10
-8.512358
 20
-16.703886
 30
0.0
 42
0.058022
  0
VERTEX
  8
34
  5
CD2
  6
CONTINUOUS
 62
7
 10
-8.357101
 20
-16.515084
 30
0.0
 42
0.067701
  0
VERTEX
  8
34
  5
CD3
  6
CONTINUOUS
 62
7
 10
-8.261495
 20
-16.310222
 30
0.0
 42
0.074379
  0
VERTEX
  8
34
  5
CD4
  6
CONTINUOUS
 62
7
 10
-8.229212
 20
-16.097173
 30
0.0
 42
0.074379
  0
SEQEND
  8
34
  5
CD5
  0
LINE
  8
34
  5
CD7
  6
CONTINUOUS
 62
7
 10
-12.6495
 20
-17.1891
 30
0.0
 11
-9.9093
 21
-17.1891
 31
0.0
  0
LINE
  8
34
  5
CD9
  6
CONTINUOUS
 62
7
 10
-9.9794
 20
-12.6415
 30
0.0
 11
-8.2294
 21
-12.0887
 31
0.0
  0
LINE
  8
34
  5
CDB
  6
CONTINUOUS
 62
7
 10
-8.2294
 20
-11.2052
 30
0.0
 11
-8.2294
 21
-12.0887
 31
0.0
  0
LINE
  8
34
  5
CDD
  6
CONTINUOUS
 62
7
 10
-12.0195
 20
-16.0515
 30
0.0
 11
-10.5395
 21
-16.0515
 31
0.0
  0
LINE
  8
34
  5
CDF
  6
CONTINUOUS
 62
7
 10
-12.5796
 20
-11.6147
 30
0.0
 11
-12.5796
 21
-15.6875
 31
0.0
  0
LINE
  8
34
  5
CE1
  6
CONTINUOUS
 62
7
 10
-12.0195
 20
-11.2507
 30
0.0
 11
-10.5395
 21
-11.2507
 31
0.0
  0
LINE
  8
34
  5
CE3
  6
CONTINUOUS
 62
7
 10
-9.9794
 20
-11.6147
 30
0.0
 11
-9.9794
 21
-12.6415
 31
0.0
  0
POLYLINE
  8
34
  5
CE5
  6
CONTINUOUS
 62
7
 10
0.0
 20
0.0
 30
0.0
 66
1
 70
0
  0
VERTEX
  8
34
  5
CE6
  6
CONTINUOUS
 62
7
 10
-9.9793
 20
-11.614652
 30
0.0
 42
0.074379
  0
VERTEX
  8
34
  5
CE7
  6
CONTINUOUS
 62
7
 10
-9.990061
 20
-11.543635
 30
0.0
 42
0.067701
  0
VERTEX
  8
34
  5
CE8
  6
CONTINUOUS
 62
7
 10
-10.02193
 20
-11.475348
 30
0.0
 42
0.058022
  0
VERTEX
  8
34
  5
CE9
  6
CONTINUOUS
 62
7
 10
-10.073682
 20
-11.412414
 30
0.0
 42
0.048847
  0
VERTEX
  8
34
  5
CEA
  6
CONTINUOUS
 62
7
 10
-10.143329
 20
-11.357252
 30
0.0
 42
0.041684
  0
VERTEX
  8
34
  5
CEB
  6
CONTINUOUS
 62
7
 10
-10.228193
 20
-11.311982
 30
0.0
 42
0.0367
  0
VERTEX
  8
34
  5
CEC
  6
CONTINUOUS
 62
7
 10
-10.325015
 20
-11.278343
 30
0.0
 42
0.033618
  0
VERTEX
  8
34
  5
CED
  6
CONTINUOUS
 62
7
 10
-10.430072
 20
-11.257628
 30
0.0
 42
0.032156
  0
VERTEX
  8
34
  5
CEE
  6
CONTINUOUS
 62
7
 10
-10.539328
 20
-11.250634
 30
0.0
 42
0.032156
  0
SEQEND
  8
34
  5
CEF
  0
POLYLINE
  8
34
  5
CF1
  6
CONTINUOUS
 62
7
 10
0.0
 20
0.0
 30
0.0
 66
1
 70
0
  0
VERTEX
  8
34
  5
CF2
  6
CONTINUOUS
 62
7
 10
-12.019403
 20
-11.250634
 30
0.0
 42
0.032156
  0
VERTEX
  8
34
  5
CF3
  6
CONTINUOUS
 62
7
 10
-12.128659
 20
-11.257628
 30
0.0
 42
0.033618
  0
VERTEX
  8
34
  5
CF4
  6
CONTINUOUS
 62
7
 10
-12.233716
 20
-11.278343
 30
0.0
 42
0.0367
  0
VERTEX
  8
34
  5
CF5
  6
CONTINUOUS
 62
7
 10
-12.330538
 20
-11.311982
 30
0.0
 42
0.041684
  0
VERTEX
  8
34
  5
CF6
  6
CONTINUOUS
 62
7
 10
-12.415402
 20
-11.357252
 30
0.0
 42
0.048847
  0
VERTEX
  8
34
  5
CF7
  6
CONTINUOUS
 62
7
 10
-12.485049
 20
-11.412414
 30
0.0
 42
0.058022
  0
VERTEX
  8
34
  5
CF8
  6
CONTINUOUS
 62
7
 10
-12.536801
 20
-11.475348
 30
0.0
 42
0.067701
  0
VERTEX
  8
34
  5
CF9
  6
CONTINUOUS
 62
7
 10
-12.56867
 20
-11.543635
 30
0.0
 42
0.074379
  0
VERTEX
  8
34
  5
CFA
  6
CONTINUOUS
 62
7
 10
-12.579431
 20
-11.614652
 30
0.0
 42
0.074379
  0
SEQEND
  8
34
  5
CFB
  0
POLYLINE
  8
34
  5
CFD
  6
CONTINUOUS
 62
7
 10
0.0
 20
0.0
 30
0.0
 66
1
 70
0
  0
VERTEX
  8
34
  5
CFE
  6
CONTINUOUS
 62
7
 10
-9.9793
 20
-15.687653
 30
0.0
 42
-0.074379
  0
VERTEX
  8
34
  5
CFF
  6
CONTINUOUS
 62
7
 10
-9.990061
 20
-15.758669
 30
0.0
 42
-0.067701
  0
VERTEX
  8
34
  5
D00
  6
CONTINUOUS
 62
7
 10
-10.02193
 20
-15.826956
 30
0.0
 42
-0.058022
  0
VERTEX
  8
34
  5
D01
  6
CONTINUOUS
 62
7
 10
-10.073682
 20
-15.88989
 30
0.0
 42
-0.048847
  0
VERTEX
  8
34
  5
D02
  6
CONTINUOUS
 62
7
 10
-10.143329
 20
-15.945052
 30
0.0
 42
-0.041684
  0
VERTEX
  8
34
  5
D03
  6
CONTINUOUS
 62
7
 10
-10.228193
 20
-15.990323
 30
0.0
 42
-0.0367
  0
VERTEX
  8
34
  5
D04
  6
CONTINUOUS
 62
7
 10
-10.325015
 20
-16.023962
 30
0.0
 42
-0.033618
  0
VERTEX
  8
34
  5
D05
  6
CONTINUOUS
 62
7
 10
-10.430072
 20
-16.044676
 30
0.0
 42
-0.032156
  0
VERTEX
  8
34
  5
D06
  6
CONTINUOUS
 62
7
 10
-10.539328
 20
-16.051671
 30
0.0
 42
-0.032156
  0
SEQEND
  8
34
  5
D07
  0
POLYLINE
  8
34
  5
D09
  6
CONTINUOUS
 62
7
 10
0.0
 20
0.0
 30
0.0
 66
1
 70
0
  0
VERTEX
  8
34
  5
D0A
  6
CONTINUOUS
 62
7
 10
-12.019403
 20
-16.051671
 30
0.0
 42
-0.032156
  0
VERTEX
  8
34
  5
D0B
  6
CONTINUOUS
 62
7
 10
-12.128659
 20
-16.044676
 30
0.0
 42
-0.033618
  0
VERTEX
  8
34
  5
D0C
  6
CONTINUOUS
 62
7
 10
-12.233716
 20
-16.023962
 30
0.0
 42
-0.0367
  0
VERTEX
  8
34
  5
D0D
  6
CONTINUOUS
 62
7
 10
-12.330538
 20
-15.990323
 30
0.0
 42
-0.041684
  0
VERTEX
  8
34
  5
D0E
  6
CONTINUOUS
 62
7
 10
-12.415402
 20
-15.945052
 30
0.0
 42
-0.048847
  0
VERTEX
  8
34
  5
D0F
  6
CONTINUOUS
 62
7
 10
-12.485049
 20
-15.88989
 30
0.0
 42
-0.058022
  0
VERTEX
  8
34
  5
D10
  6
CONTINUOUS
 62
7
 10
-12.536801
 20
-15.826956
 30
0.0
 42
-0.067701
  0
VERTEX
  8
34
  5
D11
  6
CONTINUOUS
 62
7
 10
-12.56867
 20
-15.758669
 30
0.0
 42
-0.074379
  0
VERTEX
  8
34
  5
D12
  6
CONTINUOUS
 62
7
 10
-12.579431
 20
-15.687653
 30
0.0
 42
-0.074379
  0
SEQEND
  8
34
  5
D13
  0
LINE
  8
34
  5
D15
  6
CONTINUOUS
 62
7
 10
-9.9794
 20
-14.6605
 30
0.0
 11
-8.2294
 21
-15.2134
 31
0.0
  0
LINE
  8
34
  5
D17
  6
CONTINUOUS
 62
7
 10
-9.9794
 20
-15.6874
 30
0.0
 11
-9.9794
 21
-14.6605
 31
0.0
  0
LINE
  8
34
  5
D19
  6
CONTINUOUS
 62
7
 10
-8.2294
 20
-16.0968
 30
0.0
 11
-8.2294
 21
-15.2134
 31
0.0
  0
LINE
  8
34
  5
D1B
  6
CONTINUOUS
 62
7
 10
5.1548
 20
-13.518
 30
0.0
 11
2.4651
 21
-12.8316
 31
0.0
  0
LINE
  8
34
  5
D1D
  6
CONTINUOUS
 62
7
 10
4.2355
 20
-14.5352
 30
0.0
 11
1.5458
 21
-13.8491
 31
0.0
  0
LINE
  8
34
  5
D1F
  6
CONTINUOUS
 62
7
 10
0.3001
 20
-11.2052
 30
0.0
 11
0.3001
 21
-12.7941
 31
0.0
  0
LINE
  8
34
  5
D21
  6
CONTINUOUS
 62
7
 10
0.3001
 20
-15.2134
 30
0.0
 11
0.3001
 21
-16.097
 31
0.0
  0
LINE
  8
34
  5
D23
  6
CONTINUOUS
 62
7
 10
2.0503
 20
-11.6147
 30
0.0
 11
2.0503
 21
-12.4801
 31
0.0
  0
LINE
  8
34
  5
D25
  6
CONTINUOUS
 62
7
 10
2.0503
 20
-14.6605
 30
0.0
 11
2.0503
 21
-15.6875
 31
0.0
  0
LINE
  8
34
  5
D27
  6
CONTINUOUS
 62
7
 10
4.6504
 20
-11.6147
 30
0.0
 11
4.6504
 21
-12.6415
 31
0.0
  0
LINE
  8
34
  5
D29
  6
CONTINUOUS
 62
7
 10
4.6504
 20
-14.8867
 30
0.0
 11
4.6504
 21
-15.6875
 31
0.0
  0
LINE
  8
34
  5
D2B
  6
CONTINUOUS
 62
7
 10
6.4004
 20
-11.2052
 30
0.0
 11
6.4004
 21
-12.0887
 31
0.0
  0
LINE
  8
34
  5
D2D
  6
CONTINUOUS
 62
7
 10
6.4004
 20
-14.5725
 30
0.0
 11
6.4004
 21
-16.097
 31
0.0
  0
LINE
  8
34
  5
D2F
  6
CONTINUOUS
 62
7
 10
2.0503
 20
-14.6605
 30
0.0
 11
0.3001
 21
-15.2134
 31
0.0
  0
LINE
  8
34
  5
D31
  6
CONTINUOUS
 62
7
 10
4.6504
 20
-12.6415
 30
0.0
 11
6.4004
 21
-12.0887
 31
0.0
  0
POLYLINE
  8
34
  5
D33
  6
CONTINUOUS
 62
7
 10
0.0
 20
0.0
 30
0.0
 66
1
 70
0
  0
VERTEX
  8
34
  5
D34
  6
CONTINUOUS
 62
7
 10
4.235433
 20
-14.535259
 30
0.0
 42
-0.032739
  0
VERTEX
  8
34
  5
D35
  6
CONTINUOUS
 62
7
 10
4.333442
 20
-14.558917
 30
0.0
 42
-0.035995
  0
VERTEX
  8
34
  5
D36
  6
CONTINUOUS
 62
7
 10
4.422978
 20
-14.594003
 30
0.0
 42
-0.040967
  0
VERTEX
  8
34
  5
D37
  6
CONTINUOUS
 62
7
 10
4.500921
 20
-14.639296
 30
0.0
 42
-0.047846
  0
VERTEX
  8
34
  5
D38
  6
CONTINUOUS
 62
7
 10
4.564554
 20
-14.693216
 30
0.0
 42
-0.056364
  0
VERTEX
  8
34
  5
D39
  6
CONTINUOUS
 62
7
 10
4.61166
 20
-14.753884
 30
0.0
 42
-0.065066
  0
VERTEX
  8
34
  5
D3A
  6
CONTINUOUS
 62
7
 10
4.640596
 20
-14.819186
 30
0.0
 42
-0.070919
  0
VERTEX
  8
34
  5
D3B
  6
CONTINUOUS
 62
7
 10
4.650355
 20
-14.886846
 30
0.0
 42
-0.070919
  0
SEQEND
  8
34
  5
D3C
  0
POLYLINE
  8
34
  5
D3E
  6
CONTINUOUS
 62
7
 10
0.0
 20
0.0
 30
0.0
 66
1
 70
0
  0
VERTEX
  8
34
  5
D3F
  6
CONTINUOUS
 62
7
 10
2.465339
 20
-12.831407
 30
0.0
 42
-0.032744
  0
VERTEX
  8
34
  5
D40
  6
CONTINUOUS
 62
7
 10
2.367291
 20
-12.807764
 30
0.0
 42
-0.035999
  0
VERTEX
  8
34
  5
D41
  6
CONTINUOUS
 62
7
 10
2.277716
 20
-12.772685
 30
0.0
 42
-0.040971
  0
VERTEX
  8
34
  5
D42
  6
CONTINUOUS
 62
7
 10
2.199736
 20
-12.727392
 30
0.0
 42
-0.047851
  0
VERTEX
  8
34
  5
D43
  6
CONTINUOUS
 62
7
 10
2.136071
 20
-12.673464
 30
0.0
 42
-0.056373
  0
VERTEX
  8
34
  5
D44
  6
CONTINUOUS
 62
7
 10
2.088941
 20
-12.612784
 30
0.0
 42
-0.06508
  0
VERTEX
  8
34
  5
D45
  6
CONTINUOUS
 62
7
 10
2.059989
 20
-12.547465
 30
0.0
 42
-0.070938
  0
VERTEX
  8
34
  5
D46
  6
CONTINUOUS
 62
7
 10
2.050224
 20
-12.479787
 30
0.0
 42
-0.070938
  0
SEQEND
  8
34
  5
D47
  0
POLYLINE
  8
34
  5
D49
  6
CONTINUOUS
 62
7
 10
0.0
 20
0.0
 30
0.0
 66
1
 70
0
  0
VERTEX
  8
34
  5
D4A
  6
CONTINUOUS
 62
7
 10
1.545501
 20
-13.84888
 30
0.0
 42
-0.032744
  0
VERTEX
  8
34
  5
D4B
  6
CONTINUOUS
 62
7
 10
1.251354
 20
-13.777952
 30
0.0
 42
-0.035999
  0
VERTEX
  8
34
  5
D4C
  6
CONTINUOUS
 62
7
 10
0.982623
 20
-13.672714
 30
0.0
 42
-0.040971
  0
VERTEX
  8
34
  5
D4D
  6
CONTINUOUS
 62
7
 10
0.748679
 20
-13.536834
 30
0.0
 42
-0.047851
  0
VERTEX
  8
34
  5
D4E
  6
CONTINUOUS
 62
7
 10
0.557681
 20
-13.375052
 30
0.0
 42
-0.056373
  0
VERTEX
  8
34
  5
D4F
  6
CONTINUOUS
 62
7
 10
0.416287
 20
-13.193009
 30
0.0
 42
-0.065081
  0
VERTEX
  8
34
  5
D50
  6
CONTINUOUS
 62
7
 10
0.329429
 20
-12.997052
 30
0.0
 42
-0.070939
  0
VERTEX
  8
34
  5
D51
  6
CONTINUOUS
 62
7
 10
0.300136
 20
-12.794015
 30
0.0
 42
-0.070939
  0
SEQEND
  8
34
  5
D52
  0
POLYLINE
  8
34
  5
D54
  6
CONTINUOUS
 62
7
 10
0.0
 20
0.0
 30
0.0
 66
1
 70
0
  0
VERTEX
  8
34
  5
D55
  6
CONTINUOUS
 62
7
 10
5.154856
 20
-13.517936
 30
0.0
 42
-0.032745
  0
VERTEX
  8
34
  5
D56
  6
CONTINUOUS
 62
7
 10
5.449048
 20
-13.588847
 30
0.0
 42
-0.036001
  0
VERTEX
  8
34
  5
D57
  6
CONTINUOUS
 62
7
 10
5.717824
 20
-13.694078
 30
0.0
 42
-0.040973
  0
VERTEX
  8
34
  5
D58
  6
CONTINUOUS
 62
7
 10
5.951811
 20
-13.829958
 30
0.0
 42
-0.047854
  0
VERTEX
  8
34
  5
D59
  6
CONTINUOUS
 62
7
 10
6.142846
 20
-13.991748
 30
0.0
 42
-0.056377
  0
VERTEX
  8
34
  5
D5A
  6
CONTINUOUS
 62
7
 10
6.284268
 20
-14.173806
 30
0.0
 42
-0.065086
  0
VERTEX
  8
34
  5
D5B
  6
CONTINUOUS
 62
7
 10
6.371144
 20
-14.369782
 30
0.0
 42
-0.070946
  0
VERTEX
  8
34
  5
D5C
  6
CONTINUOUS
 62
7
 10
6.400443
 20
-14.57284
 30
0.0
 42
-0.070946
  0
SEQEND
  8
34
  5
D5D
  0
POLYLINE
  8
34
  5
D5F
  6
CONTINUOUS
 62
7
 10
0.0
 20
0.0
 30
0.0
 66
1
 70
0
  0
VERTEX
  8
34
  5
D60
  6
CONTINUOUS
 62
7
 10
-5.357288
 20
-10.113076
 30
0.0
 42
0.032156
  0
VERTEX
  8
34
  5
D61
  6
CONTINUOUS
 62
7
 10
-5.685056
 20
-10.13406
 30
0.0
 42
0.033618
  0
VERTEX
  8
34
  5
D62
  6
CONTINUOUS
 62
7
 10
-6.000228
 20
-10.196204
 30
0.0
 42
0.0367
  0
VERTEX
  8
34
  5
D63
  6
CONTINUOUS
 62
7
 10
-6.290693
 20
-10.297121
 30
0.0
 42
0.041684
  0
VERTEX
  8
34
  5
D64
  6
CONTINUOUS
 62
7
 10
-6.545287
 20
-10.432932
 30
0.0
 42
0.048847
  0
VERTEX
  8
34
  5
D65
  6
CONTINUOUS
 62
7
 10
-6.754227
 20
-10.598418
 30
0.0
 42
0.058022
  0
VERTEX
  8
34
  5
D66
  6
CONTINUOUS
 62
7
 10
-6.909484
 20
-10.78722
 30
0.0
 42
0.067701
  0
VERTEX
  8
34
  5
D67
  6
CONTINUOUS
 62
7
 10
-7.00509
 20
-10.992082
 30
0.0
 42
0.074379
  0
VERTEX
  8
34
  5
D68
  6
CONTINUOUS
 62
7
 10
-7.037372
 20
-11.205131
 30
0.0
 42
0.074379
  0
SEQEND
  8
34
  5
D69
  0
POLYLINE
  8
34
  5
D6B
  6
CONTINUOUS
 62
7
 10
0.0
 20
0.0
 30
0.0
 66
1
 70
0
  0
VERTEX
  8
34
  5
D6C
  6
CONTINUOUS
 62
7
 10
-5.357288
 20
-17.189228
 30
0.0
 42
-0.032156
  0
VERTEX
  8
34
  5
D6D
  6
CONTINUOUS
 62
7
 10
-5.685056
 20
-17.168245
 30
0.0
 42
-0.033618
  0
VERTEX
  8
34
  5
D6E
  6
CONTINUOUS
 62
7
 10
-6.000228
 20
-17.1061
 30
0.0
 42
-0.0367
  0
VERTEX
  8
34
  5
D6F
  6
CONTINUOUS
 62
7
 10
-6.290693
 20
-17.005184
 30
0.0
 42
-0.041684
  0
VERTEX
  8
34
  5
D70
  6
CONTINUOUS
 62
7
 10
-6.545287
 20
-16.869373
 30
0.0
 42
-0.048847
  0
VERTEX
  8
34
  5
D71
  6
CONTINUOUS
 62
7
 10
-6.754227
 20
-16.703886
 30
0.0
 42
-0.058022
  0
VERTEX
  8
34
  5
D72
  6
CONTINUOUS
 62
7
 10
-6.909484
 20
-16.515084
 30
0.0
 42
-0.067701
  0
VERTEX
  8
34
  5
D73
  6
CONTINUOUS
 62
7
 10
-7.00509
 20
-16.310222
 30
0.0
 42
-0.074379
  0
VERTEX
  8
34
  5
D74
  6
CONTINUOUS
 62
7
 10
-7.037372
 20
-16.097173
 30
0.0
 42
-0.074379
  0
SEQEND
  8
34
  5
D75
  0
LINE
  8
34
  5
D77
  6
CONTINUOUS
 62
7
 10
-5.3575
 20
-10.1132
 30
0.0
 11
-2.6173
 21
-10.1132
 31
0.0
  0
LINE
  8
34
  5
D79
  6
CONTINUOUS
 62
7
 10
-5.3575
 20
-17.1891
 30
0.0
 11
-2.6173
 21
-17.1891
 31
0.0
  0
POLYLINE
  8
34
  5
D7B
  6
CONTINUOUS
 62
7
 10
0.0
 20
0.0
 30
0.0
 66
1
 70
0
  0
VERTEX
  8
34
  5
D7C
  6
CONTINUOUS
 62
7
 10
-2.61715
 20
-10.113076
 30
0.0
 42
-0.032156
  0
VERTEX
  8
34
  5
D7D
  6
CONTINUOUS
 62
7
 10
-2.289382
 20
-10.13406
 30
0.0
 42
-0.033618
  0
VERTEX
  8
34
  5
D7E
  6
CONTINUOUS
 62
7
 10
-1.97421
 20
-10.196204
 30
0.0
 42
-0.0367
  0
VERTEX
  8
34
  5
D7F
  6
CONTINUOUS
 62
7
 10
-1.683745
 20
-10.297121
 30
0.0
 42
-0.041684
  0
VERTEX
  8
34
  5
D80
  6
CONTINUOUS
 62
7
 10
-1.429151
 20
-10.432932
 30
0.0
 42
-0.048847
  0
VERTEX
  8
34
  5
D81
  6
CONTINUOUS
 62
7
 10
-1.220211
 20
-10.598418
 30
0.0
 42
-0.058022
  0
VERTEX
  8
34
  5
D82
  6
CONTINUOUS
 62
7
 10
-1.064955
 20
-10.78722
 30
0.0
 42
-0.067701
  0
VERTEX
  8
34
  5
D83
  6
CONTINUOUS
 62
7
 10
-0.969348
 20
-10.992082
 30
0.0
 42
-0.074379
  0
VERTEX
  8
34
  5
D84
  6
CONTINUOUS
 62
7
 10
-0.937066
 20
-11.205131
 30
0.0
 42
-0.074379
  0
SEQEND
  8
34
  5
D85
  0
POLYLINE
  8
34
  5
D87
  6
CONTINUOUS
 62
7
 10
0.0
 20
0.0
 30
0.0
 66
1
 70
0
  0
VERTEX
  8
34
  5
D88
  6
CONTINUOUS
 62
7
 10
-2.61715
 20
-17.189228
 30
0.0
 42
0.032156
  0
VERTEX
  8
34
  5
D89
  6
CONTINUOUS
 62
7
 10
-2.289382
 20
-17.168245
 30
0.0
 42
0.033618
  0
VERTEX
  8
34
  5
D8A
  6
CONTINUOUS
 62
7
 10
-1.97421
 20
-17.1061
 30
0.0
 42
0.0367
  0
VERTEX
  8
34
  5
D8B
  6
CONTINUOUS
 62
7
 10
-1.683745
 20
-17.005184
 30
0.0
 42
0.041684
  0
VERTEX
  8
34
  5
D8C
  6
CONTINUOUS
 62
7
 10
-1.429151
 20
-16.869373
 30
0.0
 42
0.048847
  0
VERTEX
  8
34
  5
D8D
  6
CONTINUOUS
 62
7
 10
-1.220211
 20
-16.703886
 30
0.0
 42
0.058022
  0
VERTEX
  8
34
  5
D8E
  6
CONTINUOUS
 62
7
 10
-1.064955
 20
-16.515084
 30
0.0
 42
0.067701
  0
VERTEX
  8
34
  5
D8F
  6
CONTINUOUS
 62
7
 10
-0.969348
 20
-16.310222
 30
0.0
 42
0.074379
  0
VERTEX
  8
34
  5
D90
  6
CONTINUOUS
 62
7
 10
-0.937066
 20
-16.097173
 30
0.0
 42
0.074379
  0
SEQEND
  8
34
  5
D91
  0
LINE
  8
34
  5
D93
  6
CONTINUOUS
 62
7
 10
-5.3575
 20
-17.1891
 30
0.0
 11
-2.6173
 21
-17.1891
 31
0.0
  0
LINE
  8
34
  5
D95
  6
CONTINUOUS
 62
7
 10
-4.7274
 20
-16.0515
 30
0.0
 11
-3.2473
 21
-16.0515
 31
0.0
  0
LINE
  8
34
  5
D97
  6
CONTINUOUS
 62
7
 10
-4.7274
 20
-11.2507
 30
0.0
 11
-3.2473
 21
-11.2507
 31
0.0
  0
POLYLINE
  8
34
  5
D99
  6
CONTINUOUS
 62
7
 10
0.0
 20
0.0
 30
0.0
 66
1
 70
0
  0
VERTEX
  8
34
  5
D9A
  6
CONTINUOUS
 62
7
 10
-4.727256
 20
-16.051671
 30
0.0
 42
-0.032156
  0
VERTEX
  8
34
  5
D9B
  6
CONTINUOUS
 62
7
 10
-4.836512
 20
-16.044676
 30
0.0
 42
-0.033618
  0
VERTEX
  8
34
  5
D9C
  6
CONTINUOUS
 62
7
 10
-4.94157
 20
-16.023962
 30
0.0
 42
-0.0367
  0
VERTEX
  8
34
  5
D9D
  6
CONTINUOUS
 62
7
 10
-5.038391
 20
-15.990323
 30
0.0
 42
-0.041684
  0
VERTEX
  8
34
  5
D9E
  6
CONTINUOUS
 62
7
 10
-5.123256
 20
-15.945052
 30
0.0
 42
-0.048847
  0
VERTEX
  8
34
  5
D9F
  6
CONTINUOUS
 62
7
 10
-5.192903
 20
-15.88989
 30
0.0
 42
-0.058022
  0
VERTEX
  8
34
  5
DA0
  6
CONTINUOUS
 62
7
 10
-5.244655
 20
-15.826956
 30
0.0
 42
-0.067701
  0
VERTEX
  8
34
  5
DA1
  6
CONTINUOUS
 62
7
 10
-5.276524
 20
-15.758669
 30
0.0
 42
-0.074379
  0
VERTEX
  8
34
  5
DA2
  6
CONTINUOUS
 62
7
 10
-5.287284
 20
-15.687653
 30
0.0
 42
-0.074379
  0
SEQEND
  8
34
  5
DA3
  0
POLYLINE
  8
34
  5
DA5
  6
CONTINUOUS
 62
7
 10
0.0
 20
0.0
 30
0.0
 66
1
 70
0
  0
VERTEX
  8
34
  5
DA6
  6
CONTINUOUS
 62
7
 10
-4.727256
 20
-11.250634
 30
0.0
 42
0.032156
  0
VERTEX
  8
34
  5
DA7
  6
CONTINUOUS
 62
7
 10
-4.836512
 20
-11.257628
 30
0.0
 42
0.033618
  0
VERTEX
  8
34
  5
DA8
  6
CONTINUOUS
 62
7
 10
-4.94157
 20
-11.278343
 30
0.0
 42
0.0367
  0
VERTEX
  8
34
  5
DA9
  6
CONTINUOUS
 62
7
 10
-5.038391
 20
-11.311982
 30
0.0
 42
0.041684
  0
VERTEX
  8
34
  5
DAA
  6
CONTINUOUS
 62
7
 10
-5.123256
 20
-11.357252
 30
0.0
 42
0.048847
  0
VERTEX
  8
34
  5
DAB
  6
CONTINUOUS
 62
7
 10
-5.192903
 20
-11.412414
 30
0.0
 42
0.058022
  0
VERTEX
  8
34
  5
DAC
  6
CONTINUOUS
 62
7
 10
-5.244655
 20
-11.475348
 30
0.0
 42
0.067701
  0
VERTEX
  8
34
  5
DAD
  6
CONTINUOUS
 62
7
 10
-5.276524
 20
-11.543635
 30
0.0
 42
0.074379
  0
VERTEX
  8
34
  5
DAE
  6
CONTINUOUS
 62
7
 10
-5.287284
 20
-11.614652
 30
0.0
 42
0.074379
  0
SEQEND
  8
34
  5
DAF
  0
POLYLINE
  8
34
  5
DB1
  6
CONTINUOUS
 62
7
 10
0.0
 20
0.0
 30
0.0
 66
1
 70
0
  0
VERTEX
  8
34
  5
DB2
  6
CONTINUOUS
 62
7
 10
-3.247182
 20
-11.250634
 30
0.0
 42
-0.032156
  0
VERTEX
  8
34
  5
DB3
  6
CONTINUOUS
 62
7
 10
-3.137926
 20
-11.257628
 30
0.0
 42
-0.033618
  0
VERTEX
  8
34
  5
DB4
  6
CONTINUOUS
 62
7
 10
-3.032868
 20
-11.278343
 30
0.0
 42
-0.0367
  0
VERTEX
  8
34
  5
DB5
  6
CONTINUOUS
 62
7
 10
-2.936047
 20
-11.311982
 30
0.0
 42
-0.041684
  0
VERTEX
  8
34
  5
DB6
  6
CONTINUOUS
 62
7
 10
-2.851182
 20
-11.357252
 30
0.0
 42
-0.048847
  0
VERTEX
  8
34
  5
DB7
  6
CONTINUOUS
 62
7
 10
-2.781535
 20
-11.412414
 30
0.0
 42
-0.058022
  0
VERTEX
  8
34
  5
DB8
  6
CONTINUOUS
 62
7
 10
-2.729783
 20
-11.475348
 30
0.0
 42
-0.067701
  0
VERTEX
  8
34
  5
DB9
  6
CONTINUOUS
 62
7
 10
-2.697914
 20
-11.543635
 30
0.0
 42
-0.074379
  0
VERTEX
  8
34
  5
DBA
  6
CONTINUOUS
 62
7
 10
-2.687154
 20
-11.614652
 30
0.0
 42
-0.074379
  0
SEQEND
  8
34
  5
DBB
  0
POLYLINE
  8
34
  5
DBD
  6
CONTINUOUS
 62
7
 10
0.0
 20
0.0
 30
0.0
 66
1
 70
0
  0
VERTEX
  8
34
  5
DBE
  6
CONTINUOUS
 62
7
 10
-2.687154
 20
-15.687653
 30
0.0
 42
-0.074379
  0
VERTEX
  8
34
  5
DBF
  6
CONTINUOUS
 62
7
 10
-2.697914
 20
-15.758669
 30
0.0
 42
-0.067701
  0
VERTEX
  8
34
  5
DC0
  6
CONTINUOUS
 62
7
 10
-2.729783
 20
-15.826956
 30
0.0
 42
-0.058022
  0
VERTEX
  8
34
  5
DC1
  6
CONTINUOUS
 62
7
 10
-2.781535
 20
-15.88989
 30
0.0
 42
-0.048847
  0
VERTEX
  8
34
  5
DC2
  6
CONTINUOUS
 62
7
 10
-2.851182
 20
-15.945052
 30
0.0
 42
-0.041684
  0
VERTEX
  8
34
  5
DC3
  6
CONTINUOUS
 62
7
 10
-2.936047
 20
-15.990323
 30
0.0
 42
-0.0367
  0
VERTEX
  8
34
  5
DC4
  6
CONTINUOUS
 62
7
 10
-3.032868
 20
-16.023962
 30
0.0
 42
-0.033618
  0
VERTEX
  8
34
  5
DC5
  6
CONTINUOUS
 62
7
 10
-3.137926
 20
-16.044676
 30
0.0
 42
-0.032156
  0
VERTEX
  8
34
  5
DC6
  6
CONTINUOUS
 62
7
 10
-3.247182
 20
-16.051671
 30
0.0
 42
-0.032156
  0
SEQEND
  8
34
  5
DC7
  0
LINE
  8
34
  5
DC9
  6
CONTINUOUS
 62
7
 10
-2.1825
 20
-13.518
 30
0.0
 11
-4.8722
 21
-12.8316
 31
0.0
  0
LINE
  8
34
  5
DCB
  6
CONTINUOUS
 62
7
 10
-3.1021
 20
-14.5352
 30
0.0
 11
-5.7918
 21
-13.8491
 31
0.0
  0
LINE
  8
34
  5
DCD
  6
CONTINUOUS
 62
7
 10
-7.0375
 20
-11.2052
 30
0.0
 11
-7.0375
 21
-12.7941
 31
0.0
  0
LINE
  8
34
  5
DCF
  6
CONTINUOUS
 62
7
 10
-7.0375
 20
-15.2134
 30
0.0
 11
-7.0375
 21
-16.097
 31
0.0
  0
LINE
  8
34
  5
DD1
  6
CONTINUOUS
 62
7
 10
-5.2874
 20
-11.6147
 30
0.0
 11
-5.2874
 21
-12.4801
 31
0.0
  0
LINE
  8
34
  5
DD3
  6
CONTINUOUS
 62
7
 10
-5.2874
 20
-14.6605
 30
0.0
 11
-5.2874
 21
-15.6875
 31
0.0
  0
LINE
  8
34
  5
DD5
  6
CONTINUOUS
 62
7
 10
-2.6873
 20
-11.6147
 30
0.0
 11
-2.6873
 21
-12.6415
 31
0.0
  0
LINE
  8
34
  5
DD7
  6
CONTINUOUS
 62
7
 10
-2.6873
 20
-14.8867
 30
0.0
 11
-2.6873
 21
-15.6875
 31
0.0
  0
LINE
  8
34
  5
DD9
  6
CONTINUOUS
 62
7
 10
-0.9372
 20
-11.2052
 30
0.0
 11
-0.9372
 21
-12.0887
 31
0.0
  0
LINE
  8
34
  5
DDB
  6
CONTINUOUS
 62
7
 10
-0.9372
 20
-14.5725
 30
0.0
 11
-0.9372
 21
-16.097
 31
0.0
  0
LINE
  8
34
  5
DDD
  6
CONTINUOUS
 62
7
 10
-5.2874
 20
-14.6605
 30
0.0
 11
-7.0375
 21
-15.2134
 31
0.0
  0
LINE
  8
34
  5
DDF
  6
CONTINUOUS
 62
7
 10
-2.6873
 20
-12.6415
 30
0.0
 11
-0.9372
 21
-12.0887
 31
0.0
  0
POLYLINE
  8
34
  5
DE1
  6
CONTINUOUS
 62
7
 10
0.0
 20
0.0
 30
0.0
 66
1
 70
0
  0
VERTEX
  8
34
  5
DE2
  6
CONTINUOUS
 62
7
 10
-3.102076
 20
-14.535259
 30
0.0
 42
-0.032739
  0
VERTEX
  8
34
  5
DE3
  6
CONTINUOUS
 62
7
 10
-3.004067
 20
-14.558917
 30
0.0
 42
-0.035995
  0
VERTEX
  8
34
  5
DE4
  6
CONTINUOUS
 62
7
 10
-2.914531
 20
-14.594003
 30
0.0
 42
-0.040967
  0
VERTEX
  8
34
  5
DE5
  6
CONTINUOUS
 62
7
 10
-2.836588
 20
-14.639296
 30
0.0
 42
-0.047846
  0
VERTEX
  8
34
  5
DE6
  6
CONTINUOUS
 62
7
 10
-2.772955
 20
-14.693216
 30
0.0
 42
-0.056364
  0
VERTEX
  8
34
  5
DE7
  6
CONTINUOUS
 62
7
 10
-2.725849
 20
-14.753884
 30
0.0
 42
-0.065066
  0
VERTEX
  8
34
  5
DE8
  6
CONTINUOUS
 62
7
 10
-2.696913
 20
-14.819186
 30
0.0
 42
-0.070919
  0
VERTEX
  8
34
  5
DE9
  6
CONTINUOUS
 62
7
 10
-2.687154
 20
-14.886846
 30
0.0
 42
-0.070919
  0
SEQEND
  8
34
  5
DEA
  0
POLYLINE
  8
34
  5
DEC
  6
CONTINUOUS
 62
7
 10
0.0
 20
0.0
 30
0.0
 66
1
 70
0
  0
VERTEX
  8
34
  5
DED
  6
CONTINUOUS
 62
7
 10
-4.87217
 20
-12.831407
 30
0.0
 42
-0.032744
  0
VERTEX
  8
34
  5
DEE
  6
CONTINUOUS
 62
7
 10
-4.970218
 20
-12.807764
 30
0.0
 42
-0.035999
  0
VERTEX
  8
34
  5
DEF
  6
CONTINUOUS
 62
7
 10
-5.059793
 20
-12.772685
 30
0.0
 42
-0.040971
  0
VERTEX
  8
34
  5
DF0
  6
CONTINUOUS
 62
7
 10
-5.137773
 20
-12.727392
 30
0.0
 42
-0.047851
  0
VERTEX
  8
34
  5
DF1
  6
CONTINUOUS
 62
7
 10
-5.201438
 20
-12.673464
 30
0.0
 42
-0.056373
  0
VERTEX
  8
34
  5
DF2
  6
CONTINUOUS
 62
7
 10
-5.248568
 20
-12.612784
 30
0.0
 42
-0.06508
  0
VERTEX
  8
34
  5
DF3
  6
CONTINUOUS
 62
7
 10
-5.27752
 20
-12.547465
 30
0.0
 42
-0.070938
  0
VERTEX
  8
34
  5
DF4
  6
CONTINUOUS
 62
7
 10
-5.287284
 20
-12.479787
 30
0.0
 42
-0.070938
  0
SEQEND
  8
34
  5
DF5
  0
POLYLINE
  8
34
  5
DF7
  6
CONTINUOUS
 62
7
 10
0.0
 20
0.0
 30
0.0
 66
1
 70
0
  0
VERTEX
  8
34
  5
DF8
  6
CONTINUOUS
 62
7
 10
-5.792008
 20
-13.84888
 30
0.0
 42
-0.032744
  0
VERTEX
  8
34
  5
DF9
  6
CONTINUOUS
 62
7
 10
-6.086155
 20
-13.777952
 30
0.0
 42
-0.035999
  0
VERTEX
  8
34
  5
DFA
  6
CONTINUOUS
 62
7
 10
-6.354886
 20
-13.672714
 30
0.0
 42
-0.040971
  0
VERTEX
  8
34
  5
DFB
  6
CONTINUOUS
 62
7
 10
-6.58883
 20
-13.536834
 30
0.0
 42
-0.047851
  0
VERTEX
  8
34
  5
DFC
  6
CONTINUOUS
 62
7
 10
-6.779828
 20
-13.375052
 30
0.0
 42
-0.056373
  0
VERTEX
  8
34
  5
DFD
  6
CONTINUOUS
 62
7
 10
-6.921222
 20
-13.193009
 30
0.0
 42
-0.065081
  0
VERTEX
  8
34
  5
DFE
  6
CONTINUOUS
 62
7
 10
-7.008079
 20
-12.997052
 30
0.0
 42
-0.070939
  0
VERTEX
  8
34
  5
DFF
  6
CONTINUOUS
 62
7
 10
-7.037372
 20
-12.794015
 30
0.0
 42
-0.070939
  0
SEQEND
  8
34
  5
E00
  0
POLYLINE
  8
34
  5
E02
  6
CONTINUOUS
 62
7
 10
0.0
 20
0.0
 30
0.0
 66
1
 70
0
  0
VERTEX
  8
34
  5
E03
  6
CONTINUOUS
 62
7
 10
-2.182653
 20
-13.517936
 30
0.0
 42
-0.032745
  0
VERTEX
  8
34
  5
E04
  6
CONTINUOUS
 62
7
 10
-1.888461
 20
-13.588847
 30
0.0
 42
-0.036001
  0
VERTEX
  8
34
  5
E05
  6
CONTINUOUS
 62
7
 10
-1.619685
 20
-13.694078
 30
0.0
 42
-0.040973
  0
VERTEX
  8
34
  5
E06
  6
CONTINUOUS
 62
7
 10
-1.385698
 20
-13.829958
 30
0.0
 42
-0.047854
  0
VERTEX
  8
34
  5
E07
  6
CONTINUOUS
 62
7
 10
-1.194662
 20
-13.991748
 30
0.0
 42
-0.056377
  0
VERTEX
  8
34
  5
E08
  6
CONTINUOUS
 62
7
 10
-1.05324
 20
-14.173806
 30
0.0
 42
-0.065086
  0
VERTEX
  8
34
  5
E09
  6
CONTINUOUS
 62
7
 10
-0.966365
 20
-14.369782
 30
0.0
 42
-0.070946
  0
VERTEX
  8
34
  5
E0A
  6
CONTINUOUS
 62
7
 10
-0.937066
 20
-14.57284
 30
0.0
 42
-0.070946
  0
SEQEND
  8
34
  5
E0B
  0
TEXT
  8
6
  5
E0D
  6
CONTINUOUS
 62
3
 10
53.2955
 20
-9.442
 30
0.0
  1
FUSELAGE SIDE MARKING
 40
0.5007
 41
1.0
  7
STANDARD
 72
4
 11
58.2463
 21
-9.1916
 31
0.0
  0
LINE
  8
1
  5
E0F
  6
CONTINUOUS
 62
253
 10
78.6873
 20
-0.0368
 30
0.0
 11
-15.3127
 21
-0.0368
 31
0.0
  0
LINE
  8
1
  5
E11
  6
CONTINUOUS
 62
253
 10
78.6873
 20
-0.0368
 30
0.0
 11
78.6873
 21
-34.0368
 31
0.0
  0
LINE
  8
1
  5
E13
  6
CONTINUOUS
 62
253
 10
78.6873
 20
-34.0368
 30
0.0
 11
-15.3127
 21
-34.0368
 31
0.0
  0
LINE
  8
1
  5
E15
  6
CONTINUOUS
 62
253
 10
-15.3127
 20
-0.0368
 30
0.0
 11
-15.3127
 21
-34.0368
 31
0.0
  0
TEXT
  8
1
  5
E18
  6
CONTINUOUS
 62
3
 10
-15.2355
 20
-31.2156
 30
0.0
  1
   2. THE WING CENTER SECTION
 40
0.4113
 41
1.0
  7
STANDARD
 72
4
 11
-9.7387
 21
-31.01
 31
0.0
  0
TEXT
  8
1
  5
E1A
  6
CONTINUOUS
 62
3
 10
-13.9403
 20
-31.8734
 30
0.0
  1
  IS BUILT UPSIDE DOWN
 40
0.4113
 41
1.0
  7
STANDARD
 72
4
 11
-9.7387
 21
-31.6678
 31
0.0
  0
TEXT
  8
1
  5
E1C
  6
CONTINUOUS
 62
3
 10
-15.2192
 20
-32.5313
 30
0.0
  1
     IN ORDER TO INSTALL THE
 40
0.4113
 41
1.0
  7
STANDARD
 72
4
 11
-9.7386
 21
-32.3257
 31
0.0
  0
TEXT
  8
1
  5
E1E
  6
CONTINUOUS
 62
3
 10
-14.7206
 20
-33.1888
 30
0.0
  1
    ENGINE POD ASSEMBLIES.
 40
0.4113
 41
1.0
  7
STANDARD
 72
4
 11
-9.7387
 21
-32.9832
 31
0.0
  0
TEXT
  8
1
  5
E21
  6
CONTINUOUS
 62
3
 10
-16.4879
 20
-28.5213
 30
0.0
  1
      1. ALL WOOD SIZES INDICATED
 40
0.4113
 41
1.0
  7
STANDARD
 72
4
 11
-10.3143
 21
-28.3157
 31
0.0
  0
TEXT
  8
1
  5
E23
  6
CONTINUOUS
 62
3
 10
-16.2807
 20
-29.1789
 30
0.0
  1
       ARE FOR THE 93" WINGSPAN
 40
0.4113
 41
1.0
  7
STANDARD
 72
4
 11
-10.3143
 21
-28.9733
 31
0.0
  0
TEXT
  8
1
  5
E25
  6
CONTINUOUS
 62
3
 10
-17.5437
 20
-29.8367
 30
0.0
  1
          VERSION OF THIS MODEL ONLY.
 40
0.4113
 41
1.0
  7
STANDARD
 72
4
 11
-10.3144
 21
-29.6311
 31
0.0
  0
TEXT
  8
1
  5
E27
  6
CONTINUOUS
 62
3
 10
-10.627
 20
-27.1001
 30
0.0
  1
NOTES:
 40
0.7002
 41
1.0
  7
STANDARD
 72
4
 11
-8.8463
 21
-26.75
 31
0.0
  0
LINE
  8
1
  5
E29
  6
CONTINUOUS
 62
3
 10
-11.1108
 20
-27.297
 30
0.0
 11
-6.5362
 21
-27.297
 31
0.0
  0
TEXT
  8
0
  5
E2B
  6
CONTINUOUS
 62
1
 10
65.4587
 20
-2.7091
 30
0.0
  1
SHEET 2
 40
1.2337
 41
1.0
 51
15.0
  7
ROMANC
 72
4
 11
69.8929
 21
-2.0923
 31
0.0
  0
ENDSEC
  0
EOF
