  0
SECTION
  2
HEADER
  9
$ACADVER
  1
AC1006
  9
$INSBASE
 10
0.0
 20
0.0
 30
0.0
  9
$EXTMAX
 10
80.2952
 20
-38.9213
  9
$EXTMIN
 10
-15.3127
 20
-72.9213
  9
$LIMMAX
 10
12.0
 20
9.0
  9
$LIMMIN
 10
0.0
 20
0.0
  9
$ORTHOMODE
 70
0
  9
$REGENMODE
 70
1
  9
$FILLMODE
 70
1
  9
$QTEXTMODE
 70
0
  9
$MIRRTEXT
 70
1
  9
$DRAGMODE
 70
2
  9
$LTSCALE
 40
1.0
  9
$OSMODE
 70
0
  9
$ATTMODE
 70
1
  9
$TEXTSIZE
 40
0.2
  9
$TRACEWID
 40
0.05
  9
$TEXTSTYLE
  7
STANDARD
  9
$CLAYER
  8
0
  9
$CELTYPE
  6
CONTINUOUS
  9
$CECOLOR
 62
256
  9
$DIMSCALE
 40
1.0
  9
$DIMASZ
 40
0.18
  9
$DIMEXO
 40
0.0625
  9
$DIMDLI
 40
0.38
  9
$DIMRND
 40
0.0
  9
$DIMDLE
 40
0.0
  9
$DIMEXE
 40
0.18
  9
$DIMTP
 40
0.0
  9
$DIMTM
 40
0.0
  9
$DIMTXT
 40
0.18
  9
$DIMCEN
 40
0.09
  9
$DIMTSZ
 40
0.0
  9
$DIMTOL
 70
0
  9
$DIMLIM
 70
0
  9
$DIMTIH
 70
1
  9
$DIMTOH
 70
1
  9
$DIMSE1
 70
0
  9
$DIMSE2
 70
0
  9
$DIMTAD
 70
0
  9
$DIMZIN
 70
0
  9
$DIMBLK
  1

  9
$DIMASO
 70
1
  9
$DIMSHO
 70
1
  9
$DIMPOST
  1

  9
$DIMAPOST
  1

  9
$DIMALT
 70
0
  9
$DIMALTD
 70
2
  9
$DIMALTF
 40
25.4
  9
$DIMLFAC
 40
1.0
  9
$DIMTOFL
 70
0
  9
$DIMTVP
 40
0.0
  9
$DIMTIX
 70
0
  9
$DIMSOXD
 70
0
  9
$DIMSAH
 70
0
  9
$DIMBLK1
  1

  9
$DIMBLK2
  1

  9
$LUNITS
 70
2
  9
$LUPREC
 70
4
  9
$AXISMODE
 70
0
  9
$AXISUNIT
 10
0.0
 20
0.0
  9
$SKETCHINC
 40
0.1
  9
$FILLETRAD
 40
0.0
  9
$AUNITS
 70
0
  9
$AUPREC
 70
0
  9
$MENU
  1
acad
  9
$ELEVATION
 40
0.0
  9
$THICKNESS
 40
0.0
  9
$LIMCHECK
 70
0
  9
$BLIPMODE
 70
1
  9
$CHAMFERA
 40
0.0
  9
$CHAMFERB
 40
0.0
  9
$SKPOLY
 70
0
  9
$TDCREATE
 40
0.0
  9
$TDUPDATE
 40
0.0
  9
$TDINDWG
 40
0.0
  9
$TDUSRTIMER
 40
0.0
  9
$USRTIMER
 70
1
  9
$ANGBASE
 50
0.0
  9
$ANGDIR
 70
0
  9
$PDMODE
 70
0
  9
$PDSIZE
 40
0.0
  9
$PLINEWID
 40
0.0
  9
$COORDS
 70
0
  9
$SPLFRAME
 70
0
  9
$SPLINETYPE
 70
6
  9
$SPLINESEGS
 70
10
  9
$ATTDIA
 70
0
  9
$ATTREQ
 70
1
  9
$HANDLING
 70
1
  9
$HANDSEED
  5
6ED
  9
$SURFTAB1
 70
6
  9
$SURFTAB2
 70
6
  9
$SURFTYPE
 70
6
  9
$SURFU
 70
10
  9
$SURFV
 70
10
  9
$FLATLAND
 70
0
  9
$UCSNAME
  2

  9
$UCSORG
 10
0.0
 20
0.0
 30
0.0
  9
$UCSXDIR
 10
1.0
 20
0.0
 30
0.0
  9
$UCSYDIR
 10
0.0
 20
1.0
 30
0.0
  9
$USERI1
 70
0
  9
$USERI2
 70
0
  9
$USERI3
 70
0
  9
$USERI4
 70
0
  9
$USERI5
 70
0
  9
$USERR1
 40
0.0
  9
$USERR2
 40
0.0
  9
$USERR3
 40
0.0
  9
$USERR4
 40
0.0
  9
$USERR5
 40
0.0
  9
$WORLDVIEW
 70
1
  0
ENDSEC
  0
SECTION
  2
TABLES
  0
TABLE
  2
LTYPE
 70
7
  0
LTYPE
  2
CONTINUOUS
 70
64
  3
Solid line
 72
65
 73
0
 40
0.0
  0
LTYPE
  2
DOT
 70
64
  3
. . . . . . . . . . . . . . . . . . . . . . . . . . . . . . . . .
 72
65
 73
2
 40
0.25
 49
0.0
 49
-0.25
  0
LTYPE
  2
HIDDEN
 70
64
  3
__ __ __ __ __ __ __ __ __ __ __ __ __ __ __ __ __ __ __ __ __ 
 72
65
 73
2
 40
0.375
 49
0.25
 49
-0.125
  0
LTYPE
  2
DASHED
 70
64
  3
__ __ __ __ __ __ __ __ __ __ __ __ __ __ __ __ __ __ __ __ __
 72
65
 73
2
 40
0.75
 49
0.5
 49
-0.25
  0
LTYPE
  2
DASHDOT
 70
64
  3
__ . __ . __ . __ . __ . __ . __ . __ . __ . __ . __ . __ . _
 72
65
 73
4
 40
1.0
 49
0.5
 49
-0.25
 49
0.0
 49
-0.25
  0
LTYPE
  2
DIVIDE
 70
64
  3
____ . . ____ . . ____ . . ____ . . ____ . . ____ . . ____ . .
 72
65
 73
6
 40
1.25
 49
0.5
 49
-0.25
 49
0.0
 49
-0.25
 49
0.0
 49
-0.25
  0
LTYPE
  2
CENTER
 70
64
  3
____ _ ____ _ ____ _ ____ _ ____ _ ____ _ ____ _ ____ _ ____ _
 72
65
 73
4
 40
2.0
 49
1.25
 49
-0.25
 49
0.25
 49
-0.25
  0
ENDTAB
  0
TABLE
  2
LAYER
 70
13
  0
LAYER
  2
0
 70
0
 62
7
  6
CONTINUOUS
  0
LAYER
  2
CONSTRUCTION_CLASS
 70
0
 62
7
  6
CONTINUOUS
  0
LAYER
  2
PATTERN_CLASS
 70
0
 62
7
  6
CONTINUOUS
  0
LAYER
  2
2
 70
0
 62
7
  6
CONTINUOUS
  0
LAYER
  2
1
 70
0
 62
7
  6
CONTINUOUS
  0
LAYER
  2
0
 70
0
 62
7
  6
CONTINUOUS
  0
LAYER
  2
7
 70
0
 62
7
  6
CONTINUOUS
  0
LAYER
  2
10
 70
0
 62
7
  6
CONTINUOUS
  0
LAYER
  2
12
 70
0
 62
7
  6
CONTINUOUS
  0
LAYER
  2
6
 70
0
 62
7
  6
CONTINUOUS
  0
LAYER
  2
3
 70
0
 62
7
  6
CONTINUOUS
  0
LAYER
  2
4
 70
0
 62
7
  6
CONTINUOUS
  0
LAYER
  2
5
 70
0
 62
7
  6
CONTINUOUS
  0
ENDTAB
  0
TABLE
  2
STYLE
 70
3
  0
STYLE
  2
STANDARD
 70
0
 40
0.2
 41
1.0
 50
0.0
 71
0
 42
0.2
  3
txt
  4

  0
STYLE
  2
ROMANS
 70
0
 40
0.2
 41
1.0
 50
0.0
 71
0
 42
0.2
  3
ROMANS
  4

  0
STYLE
  2
ROMANC
 70
0
 40
0.2
 41
1.0
 50
0.0
 71
0
 42
0.2
  3
ROMANC
  4

  0
ENDTAB
  0
TABLE
  2
UCS
 70
0
  0
ENDTAB
  0
TABLE
  2
VIEW
 70
0
  0
ENDTAB
  0
TABLE
  2
VPORT
 70
1
  0
VPORT
  2
*ACTIVE
 70
0
 10
0.0
 20
0.0
 11
1.0
 21
1.0
 12
0.0
 22
0.0
 13
0.0
 23
0.0
 14
0.0
 24
0.0
 15
0.0
 25
0.0
 16
0.0
 26
0.0
 36
1.0
 17
29.603158
 27
-55.11865
 37
0.0
 40
61.7429
 41
1.493644
 42
50.0
 43
0.0004
 44
0.0
 50
0.0
 51
0.0
 71
0
 72
100
 73
1
 74
0
 75
0
 76
0
 77
0
 78
0
  0
ENDTAB
  0
ENDSEC
  0
SECTION
  2
BLOCKS
  0
BLOCK
  8
2
  5
6E6
 70
0
 10
0.0
 20
0.0
 30
0.0
  2
ARROWD
  3
ARROWD
  0
SOLID
  8
2
  5
6E8
  6
CONTINUOUS
 62
7
 10
0.0157
 20
0.0936
 30
0.0
 11
-0.0218
 21
0.0936
 31
0.0
 12
-0.0031
 22
-0.0189
 32
0.0
 13
-0.0031
 23
-0.0189
 33
0.0
  0
LINE
  8
2
  5
6EA
  6
CONTINUOUS
 62
7
 10
-0.003
 20
0.0936
 30
0.0
 11
-0.0031
 21
0.3561
 31
0.0
  0
ENDBLK
  8
2
  5
6EB
  0
ENDSEC
  0
SECTION
  2
ENTITIES
  0
LINE
  8
2
  5
2
  6
CONTINUOUS
 62
3
 10
44.564
 20
-56.4878
 30
0.0
 11
44.689
 21
-56.504
 31
0.0
  0
LINE
  8
2
  5
4
  6
CONTINUOUS
 62
3
 10
65.7991
 20
-59.2284
 30
0.0
 11
65.9242
 21
-59.2445
 31
0.0
  0
LINE
  8
1
  5
6
  6
CONTINUOUS
 62
3
 10
44.689
 20
-71.4447
 30
0.0
 11
69.9244
 21
-68.1881
 31
0.0
  0
LINE
  8
2
  5
8
  6
CONTINUOUS
 62
3
 10
44.564
 20
-69.1919
 30
0.0
 11
44.689
 21
-69.1759
 31
0.0
  0
LINE
  8
2
  5
A
  6
CONTINUOUS
 62
3
 10
45.7984
 20
-56.6472
 30
0.0
 11
45.9234
 21
-56.6633
 31
0.0
  0
LINE
  8
2
  5
C
  6
CONTINUOUS
 62
3
 10
49.7986
 20
-57.1634
 30
0.0
 11
49.9236
 21
-57.1795
 31
0.0
  0
LINE
  8
2
  5
E
  6
CONTINUOUS
 62
3
 10
53.7987
 20
-57.6795
 30
0.0
 11
53.9237
 21
-57.6957
 31
0.0
  0
LINE
  8
2
  5
10
  6
CONTINUOUS
 62
3
 10
57.7988
 20
-58.1958
 30
0.0
 11
57.9238
 21
-58.212
 31
0.0
  0
LINE
  8
2
  5
12
  6
CONTINUOUS
 62
3
 10
61.799
 20
-58.712
 30
0.0
 11
61.924
 21
-58.7282
 31
0.0
  0
LINE
  8
2
  5
14
  6
CONTINUOUS
 62
3
 10
61.924
 20
-58.9804
 30
0.0
 11
65.7991
 21
-59.4805
 31
0.0
  0
LINE
  8
2
  5
16
  6
CONTINUOUS
 62
3
 10
57.9238
 20
-58.464
 30
0.0
 11
61.799
 21
-58.9642
 31
0.0
  0
LINE
  8
2
  5
18
  6
CONTINUOUS
 62
3
 10
53.9237
 20
-57.9478
 30
0.0
 11
57.7988
 21
-58.4479
 31
0.0
  0
LINE
  8
2
  5
1A
  6
CONTINUOUS
 62
3
 10
49.9236
 20
-57.4317
 30
0.0
 11
53.7987
 21
-57.9317
 31
0.0
  0
LINE
  8
2
  5
1C
  6
CONTINUOUS
 62
3
 10
44.689
 20
-56.7561
 30
0.0
 11
45.7984
 21
-56.8992
 31
0.0
  0
LINE
  8
2
  5
1E
  6
CONTINUOUS
 62
3
 10
45.9234
 20
-56.9154
 30
0.0
 11
49.7986
 21
-57.4156
 31
0.0
  0
LINE
  8
2
  5
20
  6
CONTINUOUS
 62
3
 10
61.799
 20
-66.9678
 30
0.0
 11
61.924
 21
-66.9517
 31
0.0
  0
LINE
  8
2
  5
22
  6
CONTINUOUS
 62
3
 10
57.7988
 20
-67.4839
 30
0.0
 11
57.9238
 21
-67.4678
 31
0.0
  0
LINE
  8
2
  5
24
  6
CONTINUOUS
 62
3
 10
57.9238
 20
-67.3418
 30
0.0
 11
61.799
 21
-66.8417
 31
0.0
  0
LINE
  8
2
  5
26
  6
CONTINUOUS
 62
3
 10
61.924
 20
-66.8257
 30
0.0
 11
69.9244
 21
-65.7933
 31
0.0
  0
LINE
  8
2
  5
28
  6
CONTINUOUS
 62
3
 10
53.7987
 20
-68.0002
 30
0.0
 11
53.9237
 21
-67.9842
 31
0.0
  0
LINE
  8
2
  5
2A
  6
CONTINUOUS
 62
3
 10
49.7986
 20
-68.5164
 30
0.0
 11
49.9236
 21
-68.5002
 31
0.0
  0
LINE
  8
2
  5
2C
  6
CONTINUOUS
 62
3
 10
49.9236
 20
-68.3743
 30
0.0
 11
53.7987
 21
-67.8741
 31
0.0
  0
LINE
  8
2
  5
2E
  6
CONTINUOUS
 62
3
 10
53.9237
 20
-67.8581
 30
0.0
 11
57.7988
 21
-67.358
 31
0.0
  0
LINE
  8
2
  5
30
  6
CONTINUOUS
 62
3
 10
45.7984
 20
-69.0327
 30
0.0
 11
45.9234
 21
-69.0165
 31
0.0
  0
LINE
  8
2
  5
32
  6
CONTINUOUS
 62
3
 10
44.689
 20
-69.0498
 30
0.0
 11
45.7984
 21
-68.9066
 31
0.0
  0
LINE
  8
2
  5
34
  6
CONTINUOUS
 62
3
 10
45.9234
 20
-68.8906
 30
0.0
 11
49.7986
 21
-68.3904
 31
0.0
  0
LINE
  8
2
  5
36
  6
CONTINUOUS
 62
3
 10
65.7991
 20
-59.2284
 30
0.0
 11
65.7991
 21
-62.3082
 31
0.0
  0
LINE
  8
2
  5
38
  6
CONTINUOUS
 62
3
 10
65.7991
 20
-62.6837
 30
0.0
 11
65.7991
 21
-66.3256
 31
0.0
  0
LINE
  8
2
  5
3A
  6
CONTINUOUS
 62
3
 10
61.924
 20
-58.7282
 30
0.0
 11
61.924
 21
-62.1415
 31
0.0
  0
LINE
  8
2
  5
3C
  6
CONTINUOUS
 62
3
 10
61.924
 20
-62.5169
 30
0.0
 11
61.924
 21
-66.9517
 31
0.0
  0
LINE
  8
2
  5
3E
  6
CONTINUOUS
 62
3
 10
57.9238
 20
-58.212
 30
0.0
 11
57.9238
 21
-61.9696
 31
0.0
  0
LINE
  8
2
  5
40
  6
CONTINUOUS
 62
3
 10
57.9238
 20
-62.3449
 30
0.0
 11
57.9238
 21
-67.4678
 31
0.0
  0
LINE
  8
2
  5
42
  6
CONTINUOUS
 62
3
 10
53.9237
 20
-57.6957
 30
0.0
 11
53.9237
 21
-61.7976
 31
0.0
  0
LINE
  8
2
  5
44
  6
CONTINUOUS
 62
3
 10
53.9237
 20
-62.1728
 30
0.0
 11
53.9237
 21
-67.9842
 31
0.0
  0
LINE
  8
2
  5
46
  6
CONTINUOUS
 62
3
 10
49.9236
 20
-57.1795
 30
0.0
 11
49.9236
 21
-61.6253
 31
0.0
  0
LINE
  8
2
  5
48
  6
CONTINUOUS
 62
3
 10
49.9236
 20
-62.0008
 30
0.0
 11
49.9236
 21
-68.5002
 31
0.0
  0
LINE
  8
2
  5
4A
  6
CONTINUOUS
 62
3
 10
49.7986
 20
-57.1633
 30
0.0
 11
49.7986
 21
-61.62
 31
0.0
  0
LINE
  8
2
  5
4C
  6
CONTINUOUS
 62
3
 10
49.7986
 20
-61.9954
 30
0.0
 11
49.7986
 21
-68.5164
 31
0.0
  0
LINE
  8
2
  5
4E
  6
CONTINUOUS
 62
3
 10
53.7987
 20
-57.6795
 30
0.0
 11
53.7987
 21
-61.7921
 31
0.0
  0
LINE
  8
2
  5
50
  6
CONTINUOUS
 62
3
 10
53.7987
 20
-62.1673
 30
0.0
 11
53.7987
 21
-68.0002
 31
0.0
  0
LINE
  8
2
  5
52
  6
CONTINUOUS
 62
3
 10
61.799
 20
-58.712
 30
0.0
 11
61.799
 21
-62.1363
 31
0.0
  0
LINE
  8
2
  5
54
  6
CONTINUOUS
 62
3
 10
61.799
 20
-62.5115
 30
0.0
 11
61.799
 21
-66.9678
 31
0.0
  0
LINE
  8
2
  5
56
  6
CONTINUOUS
 62
3
 10
57.7988
 20
-58.1958
 30
0.0
 11
57.7988
 21
-61.9642
 31
0.0
  0
LINE
  8
2
  5
58
  6
CONTINUOUS
 62
3
 10
57.7988
 20
-62.3394
 30
0.0
 11
57.7988
 21
-67.4839
 31
0.0
  0
LINE
  8
2
  5
5A
  6
CONTINUOUS
 62
3
 10
45.9234
 20
-56.6633
 30
0.0
 11
45.9234
 21
-61.4533
 31
0.0
  0
LINE
  8
2
  5
5C
  6
CONTINUOUS
 62
3
 10
45.9234
 20
-61.8286
 30
0.0
 11
45.9234
 21
-69.0165
 31
0.0
  0
LINE
  8
2
  5
5E
  6
CONTINUOUS
 62
3
 10
45.7984
 20
-56.647
 30
0.0
 11
45.7984
 21
-61.448
 31
0.0
  0
LINE
  8
2
  5
60
  6
CONTINUOUS
 62
3
 10
45.7984
 20
-61.8233
 30
0.0
 11
45.7984
 21
-69.0327
 31
0.0
  0
LINE
  8
2
  5
62
  6
CONTINUOUS
 62
3
 10
44.689
 20
-56.504
 30
0.0
 11
44.689
 21
-61.4003
 31
0.0
  0
LINE
  8
2
  5
64
  6
CONTINUOUS
 62
3
 10
44.689
 20
-61.7756
 30
0.0
 11
44.689
 21
-69.1759
 31
0.0
  0
LINE
  8
2
  5
66
  6
CONTINUOUS
 62
3
 10
44.564
 20
-55.9838
 30
0.0
 11
44.564
 21
-61.3949
 31
0.0
  0
LINE
  8
2
  5
68
  6
CONTINUOUS
 62
3
 10
44.564
 20
-61.3949
 30
0.0
 11
44.564
 21
-71.4608
 31
0.0
  0
LINE
  8
1
  5
6A
  6
CONTINUOUS
 62
3
 10
44.564
 20
-69.444
 30
0.0
 11
69.9244
 21
-66.1714
 31
0.0
  0
LINE
  8
2
  5
6C
  6
DIVIDE
 62
6
 10
44.564
 20
-66.4192
 30
0.0
 11
69.9244
 21
-63.1463
 31
0.0
  0
LINE
  8
2
  5
6E
  6
DIVIDE
 62
6
 10
44.564
 20
-61.6452
 30
0.0
 11
69.9244
 21
-62.7362
 31
0.0
  0
LINE
  8
2
  5
70
  6
HIDDEN
 62
4
 10
44.564
 20
-61.3949
 30
0.0
 11
69.9244
 21
-62.4857
 31
0.0
  0
LINE
  8
2
  5
72
  6
CONTINUOUS
 62
3
 10
44.564
 20
-61.7701
 30
0.0
 11
69.9244
 21
-62.8611
 31
0.0
  0
LINE
  8
2
  5
74
  6
CONTINUOUS
 62
3
 10
69.9244
 20
-59.6035
 30
0.0
 11
69.9244
 21
-68.1881
 31
0.0
  0
LINE
  8
2
  5
76
  6
CONTINUOUS
 62
3
 10
65.9242
 20
-59.4965
 30
0.0
 11
69.7993
 21
-59.9969
 31
0.0
  0
LINE
  8
2
  5
78
  6
CONTINUOUS
 62
3
 10
69.7993
 20
-59.7436
 30
0.0
 11
69.9244
 21
-59.7597
 31
0.0
  0
LINE
  8
2
  5
7A
  6
CONTINUOUS
 62
3
 10
69.7993
 20
-59.7436
 30
0.0
 11
69.7993
 21
-62.4805
 31
0.0
  0
LINE
  8
2
  5
7C
  6
CONTINUOUS
 62
3
 10
69.7993
 20
-62.8611
 30
0.0
 11
69.7993
 21
-65.8093
 31
0.0
  0
LINE
  8
2
  5
7E
  6
CONTINUOUS
 62
3
 10
65.9242
 20
-59.2445
 30
0.0
 11
65.9242
 21
-62.3163
 31
0.0
  0
LINE
  8
2
  5
80
  6
CONTINUOUS
 62
3
 10
65.9242
 20
-62.6918
 30
0.0
 11
65.9242
 21
-66.3094
 31
0.0
  0
LINE
  8
1
  5
82
  6
CONTINUOUS
 62
3
 10
43.0335
 20
-55.7863
 30
0.0
 11
44.564
 21
-55.9838
 31
0.0
  0
LINE
  8
2
  5
84
  6
CONTINUOUS
 62
3
 10
44.439
 20
-56.4717
 30
0.0
 11
44.564
 21
-56.4878
 31
0.0
  0
LINE
  8
2
  5
86
  6
CONTINUOUS
 62
3
 10
44.439
 20
-69.2082
 30
0.0
 11
44.564
 21
-69.1919
 31
0.0
  0
LINE
  8
2
  5
88
  6
DIVIDE
 62
6
 10
43.0335
 20
-66.6167
 30
0.0
 11
44.564
 21
-66.4192
 31
0.0
  0
LINE
  8
2
  5
8A
  6
CONTINUOUS
 62
3
 10
43.1014
 20
-56.2991
 30
0.0
 11
43.2264
 21
-56.3151
 31
0.0
  0
LINE
  8
2
  5
8C
  6
CONTINUOUS
 62
3
 10
43.2264
 20
-56.5674
 30
0.0
 11
44.439
 21
-56.7239
 31
0.0
  0
LINE
  8
2
  5
8E
  6
CONTINUOUS
 62
3
 10
43.2264
 20
-69.2385
 30
0.0
 11
44.439
 21
-69.082
 31
0.0
  0
LINE
  8
2
  5
90
  6
CONTINUOUS
 62
3
 10
43.0335
 20
-69.2634
 30
0.0
 11
43.1014
 21
-69.2547
 31
0.0
  0
LINE
  8
2
  5
92
  6
CONTINUOUS
 62
3
 10
43.1014
 20
-69.3805
 30
0.0
 11
43.2264
 21
-69.3644
 31
0.0
  0
LINE
  8
2
  5
94
  6
CONTINUOUS
 62
3
 10
43.0335
 20
-56.5424
 30
0.0
 11
43.1014
 21
-56.5511
 31
0.0
  0
LINE
  8
2
  5
96
  6
CONTINUOUS
 62
3
 10
43.0335
 20
-69.6417
 30
0.0
 11
44.564
 21
-69.4442
 31
0.0
  0
LINE
  8
2
  5
98
  6
CONTINUOUS
 62
3
 10
44.564
 20
-55.9838
 30
0.0
 11
44.564
 21
-61.3949
 31
0.0
  0
LINE
  8
2
  5
9A
  6
CONTINUOUS
 62
3
 10
44.564
 20
-61.3949
 30
0.0
 11
44.564
 21
-69.4442
 31
0.0
  0
LINE
  8
2
  5
9C
  6
CONTINUOUS
 62
3
 10
44.439
 20
-56.4717
 30
0.0
 11
44.439
 21
-69.2082
 31
0.0
  0
LINE
  8
2
  5
9E
  6
CONTINUOUS
 62
3
 10
43.2264
 20
-56.3151
 30
0.0
 11
43.2264
 21
-69.3644
 31
0.0
  0
LINE
  8
2
  5
A0
  6
CONTINUOUS
 62
3
 10
43.1014
 20
-56.2991
 30
0.0
 11
43.1014
 21
-69.3805
 31
0.0
  0
LINE
  8
1
  5
A2
  6
CONTINUOUS
 62
3
 10
43.0335
 20
-71.6584
 30
0.0
 11
44.689
 21
-71.4447
 31
0.0
  0
LINE
  8
1
  5
A4
  6
HIDDEN
 62
30
 10
43.0335
 20
-61.3949
 30
0.0
 11
44.564
 21
-61.3949
 31
0.0
  0
LINE
  8
1
  5
A6
  6
HIDDEN
 62
30
 10
43.0335
 20
-61.7699
 30
0.0
 11
44.564
 21
-61.7699
 31
0.0
  0
LINE
  8
1
  5
A8
  6
DIVIDE
 62
6
 10
44.564
 20
-61.6452
 30
0.0
 11
43.0335
 21
-61.6452
 31
0.0
  0
LINE
  8
1
  5
AA
  6
HIDDEN
 62
30
 10
43.0335
 20
-57.8339
 30
0.0
 11
44.564
 21
-57.8339
 31
0.0
  0
LINE
  8
1
  5
AC
  6
HIDDEN
 62
30
 10
43.0335
 20
-57.4589
 30
0.0
 11
44.564
 21
-57.4589
 31
0.0
  0
LINE
  8
0
  5
AE
  6
HIDDEN
 62
253
 10
49.9236
 20
-60.9919
 30
0.0
 11
43.0335
 21
-60.9919
 31
0.0
  0
LINE
  8
0
  5
B0
  6
HIDDEN
 62
253
 10
49.9236
 20
-60.3668
 30
0.0
 11
43.0335
 21
-60.3668
 31
0.0
  0
LINE
  8
7
  5
B2
  6
HIDDEN
 62
46
 10
49.9236
 20
-60.3355
 30
0.0
 11
43.0335
 21
-60.3355
 31
0.0
  0
ARC
  8
10
  5
B4
  6
CONTINUOUS
 62
3
 10
64.812079
 20
-42.985367
 30
0.0
 40
25.715976
 50
281.4664638889
 51
299.4432166667
  0
ARC
  8
10
  5
B6
  6
CONTINUOUS
 62
3
 10
77.108939
 20
-64.770342
 30
0.0
 40
0.700024
 50
299.4432166667
 51
35.5530055556
  0
LINE
  8
1
  5
B8
  6
CONTINUOUS
 62
3
 10
44.564
 20
-55.9838
 30
0.0
 11
66.6531
 21
-58.8345
 31
0.0
  0
ARC
  8
10
  5
BA
  6
CONTINUOUS
 62
3
 10
63.813861
 20
-78.253684
 30
0.0
 40
19.625688
 50
45.0531722222
 51
81.6816833333
  0
LINE
  8
10
  5
BC
  6
CONTINUOUS
 62
2
 10
74.6082
 20
-65.6336
 30
0.0
 11
72.6812
 21
-66.2988
 31
0.0
  0
LINE
  8
10
  5
BE
  6
CONTINUOUS
 62
2
 10
72.6812
 20
-66.2988
 30
0.0
 11
71.0332
 21
-66.8677
 31
0.0
  0
LINE
  8
10
  5
C0
  6
CONTINUOUS
 62
2
 10
71.0789
 20
-61.1384
 30
0.0
 11
72.6812
 21
-62.0119
 31
0.0
  0
LINE
  8
10
  5
C2
  6
CONTINUOUS
 62
2
 10
72.6812
 20
-62.0119
 30
0.0
 11
74.6541
 21
-63.0873
 31
0.0
  0
LINE
  8
2
  5
C4
  6
CONTINUOUS
 62
2
 10
70.0492
 20
-60.0443
 30
0.0
 11
70.0492
 21
-67.9104
 31
0.0
  0
LINE
  8
10
  5
C6
  6
CONTINUOUS
 62
2
 10
70.0492
 20
-60.0443
 30
0.0
 11
69.9244
 21
-59.9919
 31
0.0
  0
LINE
  8
10
  5
C8
  6
CONTINUOUS
 62
2
 10
70.0492
 20
-67.9104
 30
0.0
 11
69.9244
 21
-67.9479
 31
0.0
  0
LINE
  8
2
  5
CA
  6
CONTINUOUS
 62
3
 10
43.0335
 20
-59.5673
 30
0.0
 11
44.564
 21
-59.7648
 31
0.0
  0
LINE
  8
2
  5
CC
  6
CONTINUOUS
 62
3
 10
43.0335
 20
-66.2382
 30
0.0
 11
44.564
 21
-66.0407
 31
0.0
  0
LINE
  8
2
  5
CE
  6
CONTINUOUS
 62
3
 10
43.0335
 20
-63.2133
 30
0.0
 11
44.564
 21
-63.0158
 31
0.0
  0
LINE
  8
2
  5
D0
  6
CONTINUOUS
 62
3
 10
43.0335
 20
-62.5923
 30
0.0
 11
44.564
 21
-62.7898
 31
0.0
  0
LINE
  8
12
  5
D2
  6
HIDDEN
 62
4
 10
44.564
 20
-62.0676
 30
0.0
 11
43.2263
 21
-62.0676
 31
0.0
  0
LINE
  8
12
  5
D4
  6
HIDDEN
 62
4
 10
44.564
 20
-62.5678
 30
0.0
 11
43.2263
 21
-62.5678
 31
0.0
  0
LINE
  8
12
  5
D6
  6
HIDDEN
 62
4
 10
44.1554
 20
-62.2391
 30
0.0
 11
44.5691
 21
-62.2391
 31
0.0
  0
LINE
  8
12
  5
D8
  6
HIDDEN
 62
4
 10
44.1554
 20
-62.3706
 30
0.0
 11
44.5693
 21
-62.3706
 31
0.0
  0
ARC
  8
12
  5
DA
  6
HIDDEN
 62
4
 10
44.207141
 20
-62.556319
 30
0.0
 40
0.321436
 50
99.2710305556
 51
128.5067305556
  0
ARC
  8
12
  5
DC
  6
HIDDEN
 62
4
 10
44.207141
 20
-62.053249
 30
0.0
 40
0.321436
 50
231.4932694444
 51
260.7289694444
  0
LINE
  8
12
  5
DE
  6
HIDDEN
 62
4
 10
44.689
 20
-61.9546
 30
0.0
 11
44.564
 21
-61.9546
 31
0.0
  0
LINE
  8
12
  5
E0
  6
HIDDEN
 62
4
 10
44.689
 20
-62.6674
 30
0.0
 11
44.564
 21
-62.6674
 31
0.0
  0
LINE
  8
12
  5
E2
  6
HIDDEN
 62
4
 10
45.5364
 20
-62.2677
 30
0.0
 11
44.8184
 21
-62.2677
 31
0.0
  0
LINE
  8
12
  5
E4
  6
HIDDEN
 62
4
 10
45.5364
 20
-62.3423
 30
0.0
 11
44.8184
 21
-62.3423
 31
0.0
  0
ARC
  8
12
  5
E6
  6
HIDDEN
 62
4
 10
44.818378
 20
-62.304984
 30
0.0
 40
0.037301
 50
90.0
 51
270.0
  0
ARC
  8
12
  5
E8
  6
HIDDEN
 62
4
 10
44.760876
 20
-62.304784
 30
0.0
 40
0.202607
 50
198.9521194444
 51
349.3334
  0
ARC
  8
12
  5
EA
  6
HIDDEN
 62
4
 10
44.760876
 20
-62.304784
 30
0.0
 40
0.202607
 50
10.5515111111
 51
161.0777805556
  0
ARC
  8
12
  5
EC
  6
HIDDEN
 62
4
 10
44.760876
 20
-62.304784
 30
0.0
 40
0.113204
 50
19.1315694444
 51
340.6539972222
  0
LINE
  8
12
  5
EE
  6
HIDDEN
 62
4
 10
47.0273
 20
-62.2384
 30
0.0
 11
47.3243
 21
-62.2384
 31
0.0
  0
LINE
  8
12
  5
F0
  6
HIDDEN
 62
4
 10
47.0273
 20
-62.3104
 30
0.0
 11
47.3243
 21
-62.3104
 31
0.0
  0
ARC
  8
12
  5
F2
  6
HIDDEN
 62
4
 10
47.316013
 20
-62.274433
 30
0.0
 40
0.036983
 50
257.1098944444
 51
77.1098944444
  0
LINE
  8
12
  5
F4
  6
HIDDEN
 62
4
 10
48.0102
 20
-62.2112
 30
0.0
 11
47.5964
 21
-62.2112
 31
0.0
  0
LINE
  8
12
  5
F6
  6
HIDDEN
 62
4
 10
48.0102
 20
-62.3427
 30
0.0
 11
47.5963
 21
-62.3427
 31
0.0
  0
ARC
  8
12
  5
F8
  6
HIDDEN
 62
4
 10
47.958402
 20
-62.528418
 30
0.0
 40
0.321436
 50
51.4932694444
 51
80.7289694444
  0
ARC
  8
12
  5
FA
  6
HIDDEN
 62
4
 10
47.958402
 20
-62.025348
 30
0.0
 40
0.321436
 50
279.2710305556
 51
308.5067305556
  0
ARC
  8
12
  5
FC
  6
HIDDEN
 62
4
 10
47.404666
 20
-62.276883
 30
0.0
 40
0.202607
 50
190.6666
 51
341.0478805556
  0
ARC
  8
12
  5
FE
  6
HIDDEN
 62
4
 10
47.404666
 20
-62.276883
 30
0.0
 40
0.202607
 50
18.9222194444
 51
169.4484888889
  0
ARC
  8
12
  5
100
  6
HIDDEN
 62
4
 10
47.404666
 20
-62.276883
 30
0.0
 40
0.113204
 50
199.3460027778
 51
160.8684305556
  0
LINE
  8
12
  5
102
  6
HIDDEN
 62
4
 10
47.6674
 20
-61.9035
 30
0.0
 11
47.6674
 21
-62.526
 31
0.0
  0
LINE
  8
12
  5
104
  6
HIDDEN
 62
4
 10
47.6674
 20
-62.526
 30
0.0
 11
48.5124
 21
-62.526
 31
0.0
  0
LINE
  8
12
  5
106
  6
HIDDEN
 62
4
 10
48.5124
 20
-62.526
 30
0.0
 11
48.5124
 21
-61.94
 31
0.0
  0
LINE
  8
12
  5
108
  6
HIDDEN
 62
4
 10
47.0273
 20
-62.149
 30
0.0
 11
47.0273
 21
-62.4406
 31
0.0
  0
LINE
  8
12
  5
10A
  6
HIDDEN
 62
4
 10
47.0273
 20
-62.4406
 30
0.0
 11
45.5364
 21
-62.4406
 31
0.0
  0
LINE
  8
12
  5
10C
  6
HIDDEN
 62
4
 10
45.5364
 20
-62.4406
 30
0.0
 11
45.5364
 21
-62.149
 31
0.0
  0
LINE
  8
12
  5
10E
  6
HIDDEN
 62
4
 10
45.5364
 20
-62.149
 30
0.0
 11
47.0273
 21
-62.149
 31
0.0
  0
LINE
  8
12
  5
110
  6
HIDDEN
 62
4
 10
45.6197
 20
-62.4406
 30
0.0
 11
45.6197
 21
-62.149
 31
0.0
  0
LINE
  8
12
  5
112
  6
HIDDEN
 62
4
 10
45.7269
 20
-62.4406
 30
0.0
 11
45.7269
 21
-62.149
 31
0.0
  0
LINE
  8
12
  5
114
  6
HIDDEN
 62
4
 10
45.8341
 20
-62.4406
 30
0.0
 11
45.8341
 21
-62.149
 31
0.0
  0
LINE
  8
12
  5
116
  6
HIDDEN
 62
4
 10
45.9649
 20
-62.4406
 30
0.0
 11
45.9649
 21
-62.149
 31
0.0
  0
LINE
  8
12
  5
118
  6
HIDDEN
 62
4
 10
46.0959
 20
-62.4406
 30
0.0
 11
46.0959
 21
-62.149
 31
0.0
  0
LINE
  8
12
  5
11A
  6
HIDDEN
 62
4
 10
46.203
 20
-62.4406
 30
0.0
 11
46.203
 21
-62.149
 31
0.0
  0
LINE
  8
12
  5
11C
  6
HIDDEN
 62
4
 10
46.3458
 20
-62.4406
 30
0.0
 11
46.3458
 21
-62.149
 31
0.0
  0
LINE
  8
12
  5
11E
  6
HIDDEN
 62
4
 10
46.4411
 20
-62.4406
 30
0.0
 11
46.4411
 21
-62.149
 31
0.0
  0
LINE
  8
12
  5
120
  6
HIDDEN
 62
4
 10
46.5364
 20
-62.4406
 30
0.0
 11
46.5364
 21
-62.149
 31
0.0
  0
LINE
  8
12
  5
122
  6
HIDDEN
 62
4
 10
46.6196
 20
-62.4406
 30
0.0
 11
46.6196
 21
-62.149
 31
0.0
  0
LINE
  8
12
  5
124
  6
HIDDEN
 62
4
 10
46.7149
 20
-62.4406
 30
0.0
 11
46.7149
 21
-62.149
 31
0.0
  0
LINE
  8
12
  5
126
  6
HIDDEN
 62
4
 10
46.8221
 20
-62.4406
 30
0.0
 11
46.8221
 21
-62.149
 31
0.0
  0
LINE
  8
12
  5
128
  6
HIDDEN
 62
4
 10
46.941
 20
-62.4406
 30
0.0
 11
46.941
 21
-62.149
 31
0.0
  0
LINE
  8
12
  5
12A
  6
CONTINUOUS
 62
2
 10
70.6352
 20
-61.4018
 30
0.0
 11
70.6352
 21
-66.5841
 31
0.0
  0
ARC
  8
12
  5
12C
  6
CONTINUOUS
 62
2
 10
70.935304
 20
-66.58406
 30
0.0
 40
0.30001
 50
180.0
 51
289.0366722222
  0
ARC
  8
12
  5
12E
  6
CONTINUOUS
 62
2
 10
70.935304
 20
-61.401843
 30
0.0
 40
0.30001
 50
61.3968138889
 51
180.0
  0
ARC
  8
12
  5
130
  6
CONTINUOUS
 62
2
 10
74.510426
 20
-65.350129
 30
0.0
 40
0.30001
 50
289.0327972222
 51
360.0
  0
ARC
  8
12
  5
132
  6
CONTINUOUS
 62
2
 10
74.510426
 20
-63.350674
 30
0.0
 40
0.30001
 50
0.0
 51
61.4078361111
  0
LINE
  8
12
  5
134
  6
CONTINUOUS
 62
2
 10
75.3104
 20
-64.8342
 30
0.0
 11
74.8105
 21
-64.8342
 31
0.0
  0
LINE
  8
12
  5
136
  6
CONTINUOUS
 62
2
 10
75.3104
 20
-64.7092
 30
0.0
 11
74.8105
 21
-64.7092
 31
0.0
  0
LINE
  8
12
  5
138
  6
CONTINUOUS
 62
2
 10
75.3104
 20
-64.7092
 30
0.0
 11
75.3104
 21
-64.8342
 31
0.0
  0
LINE
  8
12
  5
13A
  6
CONTINUOUS
 62
2
 10
74.8105
 20
-63.3507
 30
0.0
 11
74.8105
 21
-64.7092
 31
0.0
  0
LINE
  8
12
  5
13C
  6
CONTINUOUS
 62
2
 10
74.8105
 20
-64.8342
 30
0.0
 11
74.8105
 21
-65.3501
 31
0.0
  0
TEXT
  8
6
  5
13F
  6
CONTINUOUS
 62
3
 10
22.5048
 20
-53.7221
 30
0.0
  1
ALUMINUM WING
 40
0.5006
 50
270.0
 41
1.0
  7
STANDARD
 72
4
 11
22.7551
 21
-56.7906
 31
0.0
  0
TEXT
  8
6
  5
141
  6
CONTINUOUS
 62
3
 10
21.7042
 20
-54.2385
 30
0.0
  1
JOINER TUBE
 40
0.5006
 50
270.0
 41
1.0
  7
STANDARD
 72
4
 11
21.9545
 21
-56.7907
 31
0.0
  0
LINE
  8
3
  5
143
  6
CENTER
 62
1
 10
-12.7752
 20
-40.5628
 30
0.0
 11
32.4961
 21
-42.1437
 31
0.0
  0
LINE
  8
1
  5
145
  6
CONTINUOUS
 62
3
 10
32.4961
 20
-41.0167
 30
0.0
 11
-6.1282
 21
-40.2601
 31
0.0
  0
LINE
  8
1
  5
147
  6
CONTINUOUS
 62
3
 10
32.4963
 20
-43.272
 30
0.0
 11
-6.1654
 21
-41.3284
 31
0.0
  0
LINE
  8
3
  5
149
  6
CENTER
 62
1
 10
80.0998
 20
-40.4814
 30
0.0
 11
32.4961
 21
-42.1437
 31
0.0
  0
LINE
  8
1
  5
14B
  6
CONTINUOUS
 62
3
 10
71.1203
 20
-40.2602
 30
0.0
 11
71.1576
 21
-41.3284
 31
0.0
  0
LINE
  8
1
  5
14D
  6
CONTINUOUS
 62
3
 10
32.4961
 20
-43.272
 30
0.0
 11
71.1576
 21
-41.3284
 31
0.0
  0
LINE
  8
2
  5
14F
  6
CONTINUOUS
 62
30
 10
24.9513
 20
-42.7755
 30
0.0
 11
24.9513
 21
-41.8802
 31
0.0
  0
LINE
  8
2
  5
151
  6
CONTINUOUS
 62
30
 10
24.8263
 20
-45.6851
 30
0.0
 11
24.8263
 21
-40.996
 31
0.0
  0
LINE
  8
2
  5
153
  6
CONTINUOUS
 62
30
 10
24.7013
 20
-45.6851
 30
0.0
 11
24.7013
 21
-40.996
 31
0.0
  0
LINE
  8
2
  5
155
  6
CONTINUOUS
 62
30
 10
21.134
 20
-45.6851
 30
0.0
 11
21.134
 21
-40.9439
 31
0.0
  0
LINE
  8
1
  5
157
  6
CONTINUOUS
 62
30
 10
24.8263
 20
-40.996
 30
0.0
 11
24.7013
 21
-40.996
 31
0.0
  0
LINE
  8
1
  5
159
  6
CONTINUOUS
 62
30
 10
24.8263
 20
-42.7755
 30
0.0
 11
24.9513
 21
-42.7755
 31
0.0
  0
LINE
  8
1
  5
15B
  6
CONTINUOUS
 62
30
 10
21.009
 20
-40.9439
 30
0.0
 11
21.134
 21
-40.9439
 31
0.0
  0
LINE
  8
1
  5
15D
  6
CENTER
 62
1
 10
22.9176
 20
-40.3073
 30
0.0
 11
22.9176
 21
-48.083
 31
0.0
  0
LINE
  8
1
  5
15F
  6
CENTER
 62
1
 10
20.1291
 20
-43.112
 30
0.0
 11
25.5339
 21
-43.112
 31
0.0
  0
CIRCLE
  8
1
  5
161
  6
CONTINUOUS
 62
3
 10
22.917673
 20
-43.111942
 30
0.0
 40
1.250043
  0
LINE
  8
1
  5
163
  6
CONTINUOUS
 62
3
 10
25.0764
 20
-45.7085
 30
0.0
 11
25.0764
 21
-41.4537
 31
0.0
  0
LINE
  8
1
  5
165
  6
CONTINUOUS
 62
3
 10
20.7589
 20
-45.7085
 30
0.0
 11
20.7589
 21
-41.3644
 31
0.0
  0
LINE
  8
1
  5
167
  6
CONTINUOUS
 62
3
 10
22.259
 20
-47.2086
 30
0.0
 11
23.5764
 21
-47.2086
 31
0.0
  0
LINE
  8
1
  5
169
  6
CONTINUOUS
 62
3
 10
21.0148
 20
-41.1145
 30
0.0
 11
24.8321
 21
-41.2038
 31
0.0
  0
ARC
  8
1
  5
16B
  6
CONTINUOUS
 62
3
 10
22.25905
 20
-45.70853
 30
0.0
 40
1.500051
 50
180.0
 51
270.0
  0
ARC
  8
1
  5
16D
  6
CONTINUOUS
 62
3
 10
23.576295
 20
-45.70853
 30
0.0
 40
1.500051
 50
270.0
 51
360.0
  0
LINE
  8
1
  5
16F
  6
CONTINUOUS
 62
3
 10
22.6591
 20
-52.1912
 30
0.0
 11
23.0995
 21
-52.1912
 31
0.0
  0
LINE
  8
1
  5
171
  6
CONTINUOUS
 62
3
 10
22.6591
 20
-48.191
 30
0.0
 11
23.0995
 21
-48.191
 31
0.0
  0
LINE
  8
1
  5
173
  6
CONTINUOUS
 62
3
 10
22.1486
 20
-47.2086
 30
0.0
 11
22.1486
 21
-50.1129
 31
0.0
  0
LINE
  8
1
  5
175
  6
CONTINUOUS
 62
3
 10
21.9923
 20
-47.1846
 30
0.0
 11
21.9923
 21
-50.2692
 31
0.0
  0
LINE
  8
1
  5
177
  6
CONTINUOUS
 62
3
 10
22.2842
 20
-48.566
 30
0.0
 11
22.2842
 21
-51.8162
 31
0.0
  0
LINE
  8
1
  5
179
  6
CONTINUOUS
 62
3
 10
23.4745
 20
-48.566
 30
0.0
 11
23.4745
 21
-51.8162
 31
0.0
  0
ARC
  8
1
  5
17B
  6
CONTINUOUS
 62
3
 10
23.099479
 20
-48.566028
 30
0.0
 40
0.375013
 50
0.0
 51
90.0
  0
ARC
  8
1
  5
17D
  6
CONTINUOUS
 62
3
 10
22.659164
 20
-48.566028
 30
0.0
 40
0.375013
 50
90.0
 51
180.0
  0
ARC
  8
1
  5
17F
  6
CONTINUOUS
 62
3
 10
23.099479
 20
-51.816138
 30
0.0
 40
0.375013
 50
270.0
 51
0.0
  0
ARC
  8
1
  5
181
  6
CONTINUOUS
 62
3
 10
22.659164
 20
-51.816138
 30
0.0
 40
0.375013
 50
180.0
 51
270.0
  0
LINE
  8
1
  5
183
  6
CENTER
 62
1
 10
24.3744
 20
-50.191
 30
0.0
 11
21.1519
 21
-50.191
 31
0.0
  0
LINE
  8
1
  5
185
  6
CONTINUOUS
 62
3
 10
23.6868
 20
-47.2086
 30
0.0
 11
23.6868
 21
-50.1129
 31
0.0
  0
LINE
  8
1
  5
187
  6
CONTINUOUS
 62
3
 10
23.8432
 20
-47.1846
 30
0.0
 11
23.8432
 21
-50.2692
 31
0.0
  0
LINE
  8
1
  5
189
  6
CONTINUOUS
 62
3
 10
23.6868
 20
-50.1129
 30
0.0
 11
23.4745
 21
-50.1129
 31
0.0
  0
LINE
  8
1
  5
18B
  6
CONTINUOUS
 62
3
 10
22.2842
 20
-50.1129
 30
0.0
 11
22.1486
 21
-50.1129
 31
0.0
  0
LINE
  8
1
  5
18D
  6
CONTINUOUS
 62
3
 10
23.8432
 20
-50.2692
 30
0.0
 11
23.4745
 21
-50.2692
 31
0.0
  0
LINE
  8
1
  5
18F
  6
CONTINUOUS
 62
3
 10
22.2842
 20
-50.2692
 30
0.0
 11
21.9923
 21
-50.2692
 31
0.0
  0
ARC
  8
1
  5
191
  6
CONTINUOUS
 62
3
 10
21.009008
 20
-41.36438
 30
0.0
 40
0.250009
 50
88.6643305556
 51
180.0
  0
ARC
  8
1
  5
193
  6
CONTINUOUS
 62
3
 10
24.826337
 20
-41.453714
 30
0.0
 40
0.250009
 50
0.0
 51
88.6619305556
  0
LINE
  8
1
  5
195
  6
CONTINUOUS
 62
3
 10
20.7589
 20
-45.6851
 30
0.0
 11
24.8263
 21
-45.6851
 31
0.0
  0
LINE
  8
1
  5
197
  6
CONTINUOUS
 62
3
 10
24.8263
 20
-45.6851
 30
0.0
 11
25.0764
 21
-45.6851
 31
0.0
  0
LINE
  8
1
  5
199
  6
CONTINUOUS
 62
3
 10
19.1899
 20
-42.603
 30
0.0
 11
19.1899
 21
-40.756
 31
0.0
  0
LINE
  8
1
  5
19B
  6
CONTINUOUS
 62
3
 10
19.3149
 20
-42.6094
 30
0.0
 11
19.3149
 21
-40.7585
 31
0.0
  0
LINE
  8
1
  5
19D
  6
CONTINUOUS
 62
3
 10
20.5276
 20
-42.6703
 30
0.0
 11
20.5276
 21
-40.7822
 31
0.0
  0
LINE
  8
1
  5
19F
  6
CONTINUOUS
 62
3
 10
20.6526
 20
-42.6767
 30
0.0
 11
20.6526
 21
-40.7846
 31
0.0
  0
LINE
  8
1
  5
1A1
  6
CONTINUOUS
 62
3
 10
25.1297
 20
-42.9018
 30
0.0
 11
25.1297
 21
-40.8724
 31
0.0
  0
LINE
  8
1
  5
1A3
  6
CONTINUOUS
 62
3
 10
25.2546
 20
-42.9078
 30
0.0
 11
25.2546
 21
-40.8748
 31
0.0
  0
LINE
  8
1
  5
1A5
  6
CONTINUOUS
 62
3
 10
29.1299
 20
-43.1029
 30
0.0
 11
29.1299
 21
-40.9507
 31
0.0
  0
LINE
  8
1
  5
1A7
  6
CONTINUOUS
 62
3
 10
29.2548
 20
-43.1091
 30
0.0
 11
29.2548
 21
-40.9532
 31
0.0
  0
LINE
  8
1
  5
1A9
  6
CONTINUOUS
 62
3
 10
32.4961
 20
-43.272
 30
0.0
 11
32.4961
 21
-41.0167
 31
0.0
  0
LINE
  8
1
  5
1AB
  6
CONTINUOUS
 62
3
 10
32.6211
 20
-43.2657
 30
0.0
 11
32.6211
 21
-41.0143
 31
0.0
  0
LINE
  8
1
  5
1AD
  6
CONTINUOUS
 62
3
 10
32.3711
 20
-43.2657
 30
0.0
 11
32.3711
 21
-41.0143
 31
0.0
  0
LINE
  8
2
  5
1AF
  6
HIDDEN
 62
4
 10
32.4961
 20
-41.1105
 30
0.0
 11
-6.13
 21
-40.3539
 31
0.0
  0
LINE
  8
2
  5
1B1
  6
HIDDEN
 62
4
 10
32.4961
 20
-43.1783
 30
0.0
 11
-6.1608
 21
-41.2348
 31
0.0
  0
POLYLINE
  8
4
  5
1B3
  6
CONTINUOUS
 62
2
 10
0.0
 20
0.0
 30
0.0
 66
1
 70
0
  0
VERTEX
  8
4
  5
1B4
  6
CONTINUOUS
 62
2
 10
25.076346
 20
-43.111942
 30
0.0
 42
0.054158
  0
VERTEX
  8
4
  5
1B5
  6
CONTINUOUS
 62
2
 10
25.034868
 20
-42.730937
 30
0.0
 42
0.053284
  0
VERTEX
  8
4
  5
1B6
  6
CONTINUOUS
 62
2
 10
24.912027
 20
-42.364574
 30
0.0
 42
0.051741
  0
VERTEX
  8
4
  5
1B7
  6
CONTINUOUS
 62
2
 10
24.712544
 20
-42.026932
 30
0.0
 42
0.049853
  0
VERTEX
  8
4
  5
1B8
  6
CONTINUOUS
 62
2
 10
24.444085
 20
-41.730986
 30
0.0
 42
0.047958
  0
VERTEX
  8
4
  5
1B9
  6
CONTINUOUS
 62
2
 10
24.116967
 20
-41.48811
 30
0.0
 42
0.046329
  0
VERTEX
  8
4
  5
1BA
  6
CONTINUOUS
 62
2
 10
23.743761
 20
-41.307636
 30
0.0
 42
0.045154
  0
VERTEX
  8
4
  5
1BB
  6
CONTINUOUS
 62
2
 10
23.338809
 20
-41.196501
 30
0.0
 42
0.044542
  0
VERTEX
  8
4
  5
1BC
  6
CONTINUOUS
 62
2
 10
22.917673
 20
-41.158976
 30
0.0
 42
0.044542
  0
VERTEX
  8
4
  5
1BD
  6
CONTINUOUS
 62
2
 10
22.496536
 20
-41.196501
 30
0.0
 42
0.045154
  0
VERTEX
  8
4
  5
1BE
  6
CONTINUOUS
 62
2
 10
22.091584
 20
-41.307636
 30
0.0
 42
0.046329
  0
VERTEX
  8
4
  5
1BF
  6
CONTINUOUS
 62
2
 10
21.718378
 20
-41.48811
 30
0.0
 42
0.047958
  0
VERTEX
  8
4
  5
1C0
  6
CONTINUOUS
 62
2
 10
21.39126
 20
-41.730986
 30
0.0
 42
0.049853
  0
VERTEX
  8
4
  5
1C1
  6
CONTINUOUS
 62
2
 10
21.122801
 20
-42.026932
 30
0.0
 42
0.051741
  0
VERTEX
  8
4
  5
1C2
  6
CONTINUOUS
 62
2
 10
20.923318
 20
-42.364574
 30
0.0
 42
0.053284
  0
VERTEX
  8
4
  5
1C3
  6
CONTINUOUS
 62
2
 10
20.800478
 20
-42.730937
 30
0.0
 42
0.054158
  0
VERTEX
  8
4
  5
1C4
  6
CONTINUOUS
 62
2
 10
20.758999
 20
-43.111942
 30
0.0
 42
0.054158
  0
SEQEND
  8
4
  5
1C5
  0
LINE
  8
5
  5
1C7
  6
CONTINUOUS
 62
30
 10
24.7013
 20
-45.6851
 30
0.0
 11
24.8263
 21
-45.6851
 31
0.0
  0
LINE
  8
1
  5
1C9
  6
CONTINUOUS
 62
3
 10
24.9513
 20
-45.6851
 30
0.0
 11
24.9513
 21
-41.2372
 31
0.0
  0
LINE
  8
2
  5
1CB
  6
CONTINUOUS
 62
30
 10
21.009
 20
-45.6851
 30
0.0
 11
21.009
 21
-40.9439
 31
0.0
  0
LINE
  8
1
  5
1CD
  6
CONTINUOUS
 62
3
 10
20.884
 20
-45.6851
 30
0.0
 11
20.884
 21
-41.1479
 31
0.0
  0
LINE
  8
1
  5
1CF
  6
DASHDOT
 62
6
 10
46.7816
 20
-41.6449
 30
0.0
 11
35.1831
 21
-42.0499
 31
0.0
  0
LINE
  8
1
  5
1D1
  6
CONTINUOUS
 62
3
 10
32.4961
 20
-41.0168
 30
0.0
 11
71.1203
 21
-40.2599
 31
0.0
  0
LINE
  8
2
  5
1D3
  6
CONTINUOUS
 62
30
 10
40.0408
 20
-42.7755
 30
0.0
 11
40.0408
 21
-41.8802
 31
0.0
  0
LINE
  8
2
  5
1D5
  6
CONTINUOUS
 62
30
 10
40.1658
 20
-45.6851
 30
0.0
 11
40.1658
 21
-40.996
 31
0.0
  0
LINE
  8
2
  5
1D7
  6
CONTINUOUS
 62
30
 10
40.2908
 20
-45.6851
 30
0.0
 11
40.2908
 21
-40.996
 31
0.0
  0
LINE
  8
2
  5
1D9
  6
CONTINUOUS
 62
30
 10
43.8581
 20
-45.6851
 30
0.0
 11
43.8581
 21
-40.9439
 31
0.0
  0
LINE
  8
1
  5
1DB
  6
CONTINUOUS
 62
30
 10
40.1658
 20
-40.996
 30
0.0
 11
40.2908
 21
-40.996
 31
0.0
  0
LINE
  8
1
  5
1DD
  6
CONTINUOUS
 62
30
 10
40.1658
 20
-42.7755
 30
0.0
 11
40.0408
 21
-42.7755
 31
0.0
  0
LINE
  8
1
  5
1DF
  6
CONTINUOUS
 62
30
 10
43.9831
 20
-40.9439
 30
0.0
 11
43.8581
 21
-40.9439
 31
0.0
  0
LINE
  8
1
  5
1E1
  6
CENTER
 62
1
 10
42.0744
 20
-40.3073
 30
0.0
 11
42.0744
 21
-48.083
 31
0.0
  0
LINE
  8
1
  5
1E3
  6
CENTER
 62
1
 10
44.8631
 20
-43.112
 30
0.0
 11
39.4584
 21
-43.112
 31
0.0
  0
CIRCLE
  8
1
  5
1E5
  6
CONTINUOUS
 62
3
 10
42.074524
 20
-43.111942
 30
0.0
 40
1.250043
  0
LINE
  8
1
  5
1E7
  6
CONTINUOUS
 62
3
 10
39.9159
 20
-45.7085
 30
0.0
 11
39.9159
 21
-41.4537
 31
0.0
  0
LINE
  8
1
  5
1E9
  6
CONTINUOUS
 62
3
 10
44.2332
 20
-45.7085
 30
0.0
 11
44.2332
 21
-41.3644
 31
0.0
  0
LINE
  8
1
  5
1EB
  6
CONTINUOUS
 62
3
 10
42.7332
 20
-47.2086
 30
0.0
 11
41.4158
 21
-47.2086
 31
0.0
  0
LINE
  8
1
  5
1ED
  6
CONTINUOUS
 62
3
 10
43.9774
 20
-41.1145
 30
0.0
 11
40.16
 21
-41.2038
 31
0.0
  0
ARC
  8
1
  5
1EF
  6
CONTINUOUS
 62
3
 10
42.733146
 20
-45.70853
 30
0.0
 40
1.500051
 50
270.0
 51
360.0
  0
ARC
  8
1
  5
1F1
  6
CONTINUOUS
 62
3
 10
41.415902
 20
-45.70853
 30
0.0
 40
1.500051
 50
180.0
 51
270.0
  0
LINE
  8
1
  5
1F3
  6
CONTINUOUS
 62
3
 10
42.333
 20
-52.1912
 30
0.0
 11
41.8926
 21
-52.1912
 31
0.0
  0
LINE
  8
1
  5
1F5
  6
CONTINUOUS
 62
3
 10
42.333
 20
-48.191
 30
0.0
 11
41.8926
 21
-48.191
 31
0.0
  0
LINE
  8
1
  5
1F7
  6
CONTINUOUS
 62
3
 10
42.8436
 20
-47.2086
 30
0.0
 11
42.8436
 21
-50.1129
 31
0.0
  0
LINE
  8
1
  5
1F9
  6
CONTINUOUS
 62
3
 10
43.0
 20
-47.1846
 30
0.0
 11
43.0
 21
-50.2692
 31
0.0
  0
LINE
  8
1
  5
1FB
  6
CONTINUOUS
 62
3
 10
42.708
 20
-48.566
 30
0.0
 11
42.708
 21
-51.8162
 31
0.0
  0
LINE
  8
1
  5
1FD
  6
CONTINUOUS
 62
3
 10
41.5177
 20
-48.566
 30
0.0
 11
41.5177
 21
-51.8162
 31
0.0
  0
ARC
  8
1
  5
1FF
  6
CONTINUOUS
 62
3
 10
41.892718
 20
-48.566028
 30
0.0
 40
0.375013
 50
90.0
 51
180.0
  0
ARC
  8
1
  5
201
  6
CONTINUOUS
 62
3
 10
42.333033
 20
-48.566028
 30
0.0
 40
0.375013
 50
0.0
 51
90.0
  0
ARC
  8
1
  5
203
  6
CONTINUOUS
 62
3
 10
41.892718
 20
-51.816138
 30
0.0
 40
0.375013
 50
180.0
 51
270.0
  0
ARC
  8
1
  5
205
  6
CONTINUOUS
 62
3
 10
42.333033
 20
-51.816138
 30
0.0
 40
0.375013
 50
270.0
 51
360.0
  0
LINE
  8
1
  5
207
  6
CENTER
 62
1
 10
40.6177
 20
-50.191
 30
0.0
 11
43.8403
 21
-50.191
 31
0.0
  0
LINE
  8
1
  5
209
  6
CONTINUOUS
 62
3
 10
41.3054
 20
-47.2086
 30
0.0
 11
41.3054
 21
-50.1129
 31
0.0
  0
LINE
  8
1
  5
20B
  6
CONTINUOUS
 62
3
 10
41.1491
 20
-47.1846
 30
0.0
 11
41.1491
 21
-50.2692
 31
0.0
  0
LINE
  8
1
  5
20D
  6
CONTINUOUS
 62
3
 10
41.3054
 20
-50.1129
 30
0.0
 11
41.5177
 21
-50.1129
 31
0.0
  0
LINE
  8
1
  5
20F
  6
CONTINUOUS
 62
3
 10
42.708
 20
-50.1129
 30
0.0
 11
42.8436
 21
-50.1129
 31
0.0
  0
LINE
  8
1
  5
211
  6
CONTINUOUS
 62
3
 10
41.1491
 20
-50.2692
 30
0.0
 11
41.5177
 21
-50.2692
 31
0.0
  0
LINE
  8
1
  5
213
  6
CONTINUOUS
 62
3
 10
42.708
 20
-50.2692
 30
0.0
 11
43.0
 21
-50.2692
 31
0.0
  0
ARC
  8
1
  5
215
  6
CONTINUOUS
 62
3
 10
43.983189
 20
-41.36438
 30
0.0
 40
0.250009
 50
0.0
 51
91.3356694444
  0
ARC
  8
1
  5
217
  6
CONTINUOUS
 62
3
 10
40.165859
 20
-41.453714
 30
0.0
 40
0.250009
 50
91.3380694444
 51
180.0
  0
LINE
  8
1
  5
219
  6
CONTINUOUS
 62
3
 10
44.2332
 20
-45.6851
 30
0.0
 11
40.1658
 21
-45.6851
 31
0.0
  0
LINE
  8
1
  5
21B
  6
CONTINUOUS
 62
3
 10
40.1658
 20
-45.6851
 30
0.0
 11
39.9159
 21
-45.6851
 31
0.0
  0
LINE
  8
1
  5
21D
  6
CONTINUOUS
 62
3
 10
45.8024
 20
-42.603
 30
0.0
 11
45.8024
 21
-40.756
 31
0.0
  0
LINE
  8
1
  5
21F
  6
CONTINUOUS
 62
3
 10
45.6772
 20
-42.6094
 30
0.0
 11
45.6772
 21
-40.7585
 31
0.0
  0
LINE
  8
1
  5
221
  6
CONTINUOUS
 62
3
 10
44.4646
 20
-42.6703
 30
0.0
 11
44.4646
 21
-40.7822
 31
0.0
  0
LINE
  8
1
  5
223
  6
CONTINUOUS
 62
3
 10
44.3396
 20
-42.6767
 30
0.0
 11
44.3396
 21
-40.7846
 31
0.0
  0
LINE
  8
1
  5
225
  6
CONTINUOUS
 62
3
 10
39.8626
 20
-42.9018
 30
0.0
 11
39.8626
 21
-40.8724
 31
0.0
  0
LINE
  8
1
  5
227
  6
CONTINUOUS
 62
3
 10
39.7376
 20
-42.9078
 30
0.0
 11
39.7376
 21
-40.8748
 31
0.0
  0
LINE
  8
1
  5
229
  6
CONTINUOUS
 62
3
 10
35.8624
 20
-43.1029
 30
0.0
 11
35.8624
 21
-40.9507
 31
0.0
  0
LINE
  8
1
  5
22B
  6
CONTINUOUS
 62
3
 10
35.7374
 20
-43.1091
 30
0.0
 11
35.7374
 21
-40.9532
 31
0.0
  0
LINE
  8
2
  5
22D
  6
HIDDEN
 62
4
 10
32.4961
 20
-41.1105
 30
0.0
 11
71.1236
 21
-40.3538
 31
0.0
  0
LINE
  8
2
  5
22F
  6
HIDDEN
 62
4
 10
32.4961
 20
-43.1783
 30
0.0
 11
71.1543
 21
-41.2344
 31
0.0
  0
POLYLINE
  8
4
  5
231
  6
CONTINUOUS
 62
2
 10
0.0
 20
0.0
 30
0.0
 66
1
 70
0
  0
VERTEX
  8
4
  5
232
  6
CONTINUOUS
 62
2
 10
39.915851
 20
-43.111942
 30
0.0
 42
-0.054158
  0
VERTEX
  8
4
  5
233
  6
CONTINUOUS
 62
2
 10
39.957329
 20
-42.730937
 30
0.0
 42
-0.053284
  0
VERTEX
  8
4
  5
234
  6
CONTINUOUS
 62
2
 10
40.08017
 20
-42.364574
 30
0.0
 42
-0.051741
  0
VERTEX
  8
4
  5
235
  6
CONTINUOUS
 62
2
 10
40.279653
 20
-42.026932
 30
0.0
 42
-0.049853
  0
VERTEX
  8
4
  5
236
  6
CONTINUOUS
 62
2
 10
40.548111
 20
-41.730986
 30
0.0
 42
-0.047958
  0
VERTEX
  8
4
  5
237
  6
CONTINUOUS
 62
2
 10
40.875229
 20
-41.48811
 30
0.0
 42
-0.046329
  0
VERTEX
  8
4
  5
238
  6
CONTINUOUS
 62
2
 10
41.248435
 20
-41.307636
 30
0.0
 42
-0.045154
  0
VERTEX
  8
4
  5
239
  6
CONTINUOUS
 62
2
 10
41.653388
 20
-41.196501
 30
0.0
 42
-0.044542
  0
VERTEX
  8
4
  5
23A
  6
CONTINUOUS
 62
2
 10
42.074524
 20
-41.158976
 30
0.0
 42
-0.044542
  0
VERTEX
  8
4
  5
23B
  6
CONTINUOUS
 62
2
 10
42.49566
 20
-41.196501
 30
0.0
 42
-0.045154
  0
VERTEX
  8
4
  5
23C
  6
CONTINUOUS
 62
2
 10
42.900613
 20
-41.307636
 30
0.0
 42
-0.046329
  0
VERTEX
  8
4
  5
23D
  6
CONTINUOUS
 62
2
 10
43.273819
 20
-41.48811
 30
0.0
 42
-0.047958
  0
VERTEX
  8
4
  5
23E
  6
CONTINUOUS
 62
2
 10
43.600937
 20
-41.730986
 30
0.0
 42
-0.049853
  0
VERTEX
  8
4
  5
23F
  6
CONTINUOUS
 62
2
 10
43.869395
 20
-42.026932
 30
0.0
 42
-0.051741
  0
VERTEX
  8
4
  5
240
  6
CONTINUOUS
 62
2
 10
44.068878
 20
-42.364574
 30
0.0
 42
-0.053284
  0
VERTEX
  8
4
  5
241
  6
CONTINUOUS
 62
2
 10
44.191719
 20
-42.730937
 30
0.0
 42
-0.054158
  0
VERTEX
  8
4
  5
242
  6
CONTINUOUS
 62
2
 10
44.233197
 20
-43.111942
 30
0.0
 42
-0.054158
  0
SEQEND
  8
4
  5
243
  0
LINE
  8
5
  5
245
  6
CONTINUOUS
 62
30
 10
40.2908
 20
-45.6851
 30
0.0
 11
40.1658
 21
-45.6851
 31
0.0
  0
LINE
  8
1
  5
247
  6
CONTINUOUS
 62
3
 10
40.0408
 20
-45.6851
 30
0.0
 11
40.0408
 21
-41.2372
 31
0.0
  0
LINE
  8
2
  5
249
  6
CONTINUOUS
 62
30
 10
43.9831
 20
-45.6851
 30
0.0
 11
43.9831
 21
-40.9439
 31
0.0
  0
LINE
  8
1
  5
24B
  6
CONTINUOUS
 62
3
 10
44.1082
 20
-45.6851
 30
0.0
 11
44.1082
 21
-41.1479
 31
0.0
  0
ARC
  8
1
  5
24D
  6
CONTINUOUS
 62
3
 10
72.439036
 20
-252.443652
 30
0.0
 40
212.187565
 50
87.9779333333
 51
90.3565972222
  0
ARC
  8
1
  5
24F
  6
CONTINUOUS
 62
3
 10
65.156966
 20
82.102477
 30
0.0
 40
123.576647
 50
272.7830138889
 51
276.8679166667
  0
ARC
  8
1
  5
251
  6
CONTINUOUS
 62
3
 10
79.922416
 20
-40.488155
 30
0.0
 40
0.100003
 50
276.8679166667
 51
87.9779333333
  0
LINE
  8
3
  5
253
  6
CENTER
 62
1
 10
-15.1076
 20
-40.4814
 30
0.0
 11
-5.8003
 21
-40.8064
 31
0.0
  0
LINE
  8
1
  5
255
  6
CONTINUOUS
 62
3
 10
-6.1282
 20
-40.2602
 30
0.0
 11
-6.1654
 21
-41.3284
 31
0.0
  0
LINE
  8
1
  5
257
  6
CONTINUOUS
 62
3
 10
-5.8003
 20
-41.3468
 30
0.0
 11
-6.1654
 21
-41.3284
 31
0.0
  0
LINE
  8
1
  5
259
  6
CONTINUOUS
 62
3
 10
-5.8003
 20
-40.2664
 30
0.0
 11
-6.1282
 21
-40.2599
 31
0.0
  0
LINE
  8
2
  5
25B
  6
HIDDEN
 62
4
 10
-5.8003
 20
-40.3603
 30
0.0
 11
-6.1314
 21
-40.3538
 31
0.0
  0
LINE
  8
2
  5
25D
  6
HIDDEN
 62
4
 10
-5.8003
 20
-41.2527
 30
0.0
 11
-6.1621
 21
-41.2344
 31
0.0
  0
ARC
  8
1
  5
25F
  6
CONTINUOUS
 62
3
 10
-7.446815
 20
-252.443652
 30
0.0
 40
212.187565
 50
89.6434027778
 51
92.0220666667
  0
ARC
  8
1
  5
261
  6
CONTINUOUS
 62
3
 10
-0.164745
 20
82.102477
 30
0.0
 40
123.576647
 50
263.1320833333
 51
267.2169861111
  0
ARC
  8
1
  5
263
  6
CONTINUOUS
 62
3
 10
-14.930195
 20
-40.488155
 30
0.0
 40
0.100003
 50
92.0220666667
 51
263.1320833333
  0
LINE
  8
2
  5
265
  6
DASHDOT
 62
4
 10
27.9747
 20
-67.1753
 30
0.0
 11
31.5374
 21
-67.1753
 31
0.0
  0
LINE
  8
2
  5
267
  6
DASHDOT
 62
4
 10
31.7874
 20
-63.8527
 30
0.0
 11
31.7874
 21
-66.9252
 31
0.0
  0
LINE
  8
2
  5
269
  6
DASHDOT
 62
4
 10
27.9747
 20
-63.6026
 30
0.0
 11
31.5374
 21
-63.6026
 31
0.0
  0
LINE
  8
2
  5
26B
  6
DASHDOT
 62
4
 10
27.7248
 20
-63.8527
 30
0.0
 11
27.9747
 21
-63.8527
 31
0.0
  0
LINE
  8
2
  5
26D
  6
DASHDOT
 62
4
 10
31.5374
 20
-63.8527
 30
0.0
 11
31.7874
 21
-63.8527
 31
0.0
  0
LINE
  8
2
  5
26F
  6
DASHDOT
 62
4
 10
31.5374
 20
-63.6026
 30
0.0
 11
31.5374
 21
-63.8527
 31
0.0
  0
LINE
  8
2
  5
271
  6
DASHDOT
 62
4
 10
31.5374
 20
-66.9252
 30
0.0
 11
31.5374
 21
-67.1753
 31
0.0
  0
LINE
  8
2
  5
273
  6
DASHDOT
 62
4
 10
27.7248
 20
-66.9252
 30
0.0
 11
27.9747
 21
-66.9252
 31
0.0
  0
LINE
  8
2
  5
275
  6
DASHDOT
 62
4
 10
31.5374
 20
-66.9252
 30
0.0
 11
31.7874
 21
-66.9252
 31
0.0
  0
LINE
  8
2
  5
277
  6
DASHDOT
 62
4
 10
27.9747
 20
-63.6026
 30
0.0
 11
27.9747
 21
-63.8527
 31
0.0
  0
LINE
  8
2
  5
279
  6
DASHDOT
 62
4
 10
27.9747
 20
-66.9252
 30
0.0
 11
27.9747
 21
-67.1753
 31
0.0
  0
LINE
  8
1
  5
27B
  6
CENTER
 62
1
 10
29.756
 20
-67.9439
 30
0.0
 11
29.756
 21
-62.3507
 31
0.0
  0
LINE
  8
2
  5
27D
  6
DASHDOT
 62
4
 10
28.4249
 20
-64.1027
 30
0.0
 11
31.0873
 21
-64.1027
 31
0.0
  0
LINE
  8
2
  5
27F
  6
DASHDOT
 62
4
 10
31.2874
 20
-64.3027
 30
0.0
 11
31.2874
 21
-66.4752
 31
0.0
  0
LINE
  8
2
  5
281
  6
DASHDOT
 62
4
 10
28.4249
 20
-66.6753
 30
0.0
 11
31.0873
 21
-66.6753
 31
0.0
  0
LINE
  8
2
  5
283
  6
DASHDOT
 62
4
 10
28.2248
 20
-64.3027
 30
0.0
 11
28.2248
 21
-66.4752
 31
0.0
  0
ARC
  8
2
  5
285
  6
DASHDOT
 62
4
 10
31.087283
 20
-64.302743
 30
0.0
 40
0.20001
 50
0.0
 51
90.0
  0
ARC
  8
2
  5
287
  6
DASHDOT
 62
4
 10
28.424749
 20
-64.302743
 30
0.0
 40
0.20001
 50
90.0
 51
180.0
  0
ARC
  8
2
  5
289
  6
DASHDOT
 62
4
 10
31.087283
 20
-66.475152
 30
0.0
 40
0.20001
 50
270.0
 51
0.0
  0
ARC
  8
2
  5
28B
  6
DASHDOT
 62
4
 10
28.424749
 20
-66.475152
 30
0.0
 40
0.20001
 50
180.0
 51
270.0
  0
TEXT
  8
1
  5
28D
  6
CONTINUOUS
 62
3
 10
29.2132
 20
-63.3518
 30
0.0
  1
NOSE
 40
0.3329
 41
1.0
  7
STANDARD
  0
LINE
  8
2
  5
28F
  6
DASHDOT
 62
4
 10
27.7248
 20
-63.84
 30
0.0
 11
27.7248
 21
-66.9377
 31
0.0
  0
LINE
  8
1
  5
291
  6
CENTER
 62
1
 10
29.9896
 20
-65.2982
 30
0.0
 11
29.5015
 21
-65.2982
 31
0.0
  0
LINE
  8
1
  5
293
  6
CENTER
 62
1
 10
32.251
 20
-65.389
 30
0.0
 11
27.2057
 21
-65.389
 31
0.0
  0
LINE
  8
1
  5
295
  6
CONTINUOUS
 62
3
 10
27.5997
 20
-63.6026
 30
0.0
 11
27.5997
 21
-67.1753
 31
0.0
  0
LINE
  8
1
  5
297
  6
CONTINUOUS
 62
3
 10
31.9123
 20
-63.6026
 30
0.0
 11
31.9123
 21
-67.1753
 31
0.0
  0
LINE
  8
2
  5
299
  6
DASHDOT
 62
4
 10
31.5374
 20
-63.6026
 30
0.0
 11
31.9123
 21
-63.6026
 31
0.0
  0
LINE
  8
2
  5
29B
  6
DASHDOT
 62
4
 10
27.9747
 20
-63.6026
 30
0.0
 11
27.5997
 21
-63.6026
 31
0.0
  0
LINE
  8
2
  5
29D
  6
DASHDOT
 62
4
 10
27.7248
 20
-63.8527
 30
0.0
 11
27.7248
 21
-63.6026
 31
0.0
  0
LINE
  8
2
  5
29F
  6
DASHDOT
 62
4
 10
31.7874
 20
-63.8527
 30
0.0
 11
31.7874
 21
-63.6026
 31
0.0
  0
LINE
  8
2
  5
2A1
  6
DASHDOT
 62
4
 10
31.5374
 20
-67.1753
 30
0.0
 11
31.9123
 21
-67.1753
 31
0.0
  0
LINE
  8
2
  5
2A3
  6
DASHDOT
 62
4
 10
27.9747
 20
-67.1753
 30
0.0
 11
27.5997
 21
-67.1753
 31
0.0
  0
LINE
  8
2
  5
2A5
  6
DASHDOT
 62
4
 10
27.7248
 20
-66.9252
 30
0.0
 11
27.7248
 21
-67.1753
 31
0.0
  0
LINE
  8
2
  5
2A7
  6
DASHDOT
 62
4
 10
31.7874
 20
-66.9252
 30
0.0
 11
31.7874
 21
-67.1753
 31
0.0
  0
POLYLINE
  8
1
  5
2A9
  6
CONTINUOUS
 62
3
 10
0.0
 20
0.0
 30
0.0
 66
1
 70
0
  0
VERTEX
  8
1
  5
2AA
  6
CONTINUOUS
 62
3
 10
31.912324
 20
-63.602708
 30
0.0
 42
0.099242
  0
VERTEX
  8
1
  5
2AB
  6
CONTINUOUS
 62
3
 10
31.870891
 20
-63.402379
 30
0.0
 42
0.080225
  0
VERTEX
  8
1
  5
2AC
  6
CONTINUOUS
 62
3
 10
31.748185
 20
-63.209749
 30
0.0
 42
0.058997
  0
VERTEX
  8
1
  5
2AD
  6
CONTINUOUS
 62
3
 10
31.548921
 20
-63.032219
 30
0.0
 42
0.043718
  0
VERTEX
  8
1
  5
2AE
  6
CONTINUOUS
 62
3
 10
31.280756
 20
-62.876614
 30
0.0
 42
0.034106
  0
VERTEX
  8
1
  5
2AF
  6
CONTINUOUS
 62
3
 10
30.953997
 20
-62.748912
 30
0.0
 42
0.028335
  0
VERTEX
  8
1
  5
2B0
  6
CONTINUOUS
 62
3
 10
30.581199
 20
-62.65402
 30
0.0
 42
0.025083
  0
VERTEX
  8
1
  5
2B1
  6
CONTINUOUS
 62
3
 10
30.176691
 20
-62.595587
 30
0.0
 42
0.023615
  0
VERTEX
  8
1
  5
2B2
  6
CONTINUOUS
 62
3
 10
29.756016
 20
-62.575856
 30
0.0
 42
0.023615
  0
VERTEX
  8
1
  5
2B3
  6
CONTINUOUS
 62
3
 10
29.335341
 20
-62.595587
 30
0.0
 42
0.025083
  0
VERTEX
  8
1
  5
2B4
  6
CONTINUOUS
 62
3
 10
28.930832
 20
-62.65402
 30
0.0
 42
0.028335
  0
VERTEX
  8
1
  5
2B5
  6
CONTINUOUS
 62
3
 10
28.558035
 20
-62.748912
 30
0.0
 42
0.034106
  0
VERTEX
  8
1
  5
2B6
  6
CONTINUOUS
 62
3
 10
28.231276
 20
-62.876614
 30
0.0
 42
0.043718
  0
VERTEX
  8
1
  5
2B7
  6
CONTINUOUS
 62
3
 10
27.963111
 20
-63.032219
 30
0.0
 42
0.058997
  0
VERTEX
  8
1
  5
2B8
  6
CONTINUOUS
 62
3
 10
27.763847
 20
-63.209749
 30
0.0
 42
0.080225
  0
VERTEX
  8
1
  5
2B9
  6
CONTINUOUS
 62
3
 10
27.64114
 20
-63.402379
 30
0.0
 42
0.099242
  0
VERTEX
  8
1
  5
2BA
  6
CONTINUOUS
 62
3
 10
27.599708
 20
-63.602708
 30
0.0
 42
0.099242
  0
SEQEND
  8
1
  5
2BB
  0
POLYLINE
  8
1
  5
2BD
  6
CONTINUOUS
 62
3
 10
0.0
 20
0.0
 30
0.0
 66
1
 70
0
  0
VERTEX
  8
1
  5
2BE
  6
CONTINUOUS
 62
3
 10
27.599708
 20
-67.175187
 30
0.0
 42
0.127922
  0
VERTEX
  8
1
  5
2BF
  6
CONTINUOUS
 62
3
 10
27.64114
 20
-67.325161
 30
0.0
 42
0.088028
  0
VERTEX
  8
1
  5
2C0
  6
CONTINUOUS
 62
3
 10
27.763847
 20
-67.469371
 30
0.0
 42
0.05519
  0
VERTEX
  8
1
  5
2C1
  6
CONTINUOUS
 62
3
 10
27.963111
 20
-67.602276
 30
0.0
 42
0.036933
  0
VERTEX
  8
1
  5
2C2
  6
CONTINUOUS
 62
3
 10
28.231276
 20
-67.718768
 30
0.0
 42
0.027159
  0
VERTEX
  8
1
  5
2C3
  6
CONTINUOUS
 62
3
 10
28.558035
 20
-67.81437
 30
0.0
 42
0.021814
  0
VERTEX
  8
1
  5
2C4
  6
CONTINUOUS
 62
3
 10
28.930832
 20
-67.885409
 30
0.0
 42
0.018956
  0
VERTEX
  8
1
  5
2C5
  6
CONTINUOUS
 62
3
 10
29.335341
 20
-67.929155
 30
0.0
 42
0.017701
  0
VERTEX
  8
1
  5
2C6
  6
CONTINUOUS
 62
3
 10
29.756016
 20
-67.943926
 30
0.0
 42
0.017701
  0
VERTEX
  8
1
  5
2C7
  6
CONTINUOUS
 62
3
 10
30.176691
 20
-67.929155
 30
0.0
 42
0.018956
  0
VERTEX
  8
1
  5
2C8
  6
CONTINUOUS
 62
3
 10
30.581199
 20
-67.885409
 30
0.0
 42
0.021814
  0
VERTEX
  8
1
  5
2C9
  6
CONTINUOUS
 62
3
 10
30.953997
 20
-67.81437
 30
0.0
 42
0.027159
  0
VERTEX
  8
1
  5
2CA
  6
CONTINUOUS
 62
3
 10
31.280756
 20
-67.718768
 30
0.0
 42
0.036933
  0
VERTEX
  8
1
  5
2CB
  6
CONTINUOUS
 62
3
 10
31.548921
 20
-67.602276
 30
0.0
 42
0.05519
  0
VERTEX
  8
1
  5
2CC
  6
CONTINUOUS
 62
3
 10
31.748185
 20
-67.469371
 30
0.0
 42
0.088028
  0
VERTEX
  8
1
  5
2CD
  6
CONTINUOUS
 62
3
 10
31.870891
 20
-67.325161
 30
0.0
 42
0.127922
  0
VERTEX
  8
1
  5
2CE
  6
CONTINUOUS
 62
3
 10
31.912324
 20
-67.175187
 30
0.0
 42
0.127922
  0
SEQEND
  8
1
  5
2CF
  0
CIRCLE
  8
1
  5
2D1
  6
CONTINUOUS
 62
3
 10
29.756016
 20
-65.298293
 30
0.0
 40
1.017751
  0
CIRCLE
  8
1
  5
2D3
  6
CONTINUOUS
 62
3
 10
29.756016
 20
-65.298293
 30
0.0
 40
0.774939
  0
POLYLINE
  8
1
  5
2D5
  6
CONTINUOUS
 62
3
 10
0.0
 20
0.0
 30
0.0
 66
1
 70
0
  0
VERTEX
  8
1
  5
2D6
  6
CONTINUOUS
 62
3
 10
38.802677
 20
-62.606895
 30
0.0
 42
-0.000873
  0
VERTEX
  8
1
  5
2D7
  6
CONTINUOUS
 62
3
 10
38.982086
 20
-62.56101
 30
0.0
 42
-0.000874
  0
VERTEX
  8
1
  5
2D8
  6
CONTINUOUS
 62
3
 10
39.161589
 20
-62.515769
 30
0.0
 42
-0.000874
  0
SEQEND
  8
1
  5
2D9
  0
ARC
  8
1
  5
2DB
  6
DASHDOT
 62
4
 10
33.773718
 20
-65.412153
 30
0.0
 40
0.800085
 50
118.1303527778
 51
236.8377444444
  0
LINE
  8
1
  5
2DD
  6
DASHDOT
 62
4
 10
33.9508
 20
-64.4195
 30
0.0
 11
33.9508
 21
-66.3086
 31
0.0
  0
LINE
  8
2
  5
2DF
  6
CENTER
 62
1
 10
32.6331
 20
-65.3768
 30
0.0
 11
39.1615
 21
-65.3768
 31
0.0
  0
LINE
  8
2
  5
2E1
  6
HIDDEN
 62
4
 10
38.8701
 20
-63.9185
 30
0.0
 11
38.8701
 21
-67.0161
 31
0.0
  0
LINE
  8
1
  5
2E3
  6
CONTINUOUS
 62
30
 10
34.1233
 20
-64.1716
 30
0.0
 11
34.1233
 21
-66.582
 31
0.0
  0
ARC
  8
2
  5
2E5
  6
HIDDEN
 62
4
 10
34.597098
 20
-65.427295
 30
0.0
 40
0.980159
 50
131.2505527778
 51
177.0580805556
  0
ARC
  8
2
  5
2E7
  6
HIDDEN
 62
4
 10
34.597098
 20
-65.326684
 30
0.0
 40
0.980159
 50
182.9419194444
 51
228.7494472222
  0
ARC
  8
1
  5
2E9
  6
CONTINUOUS
 62
3
 10
44.768754
 20
-44.698792
 30
0.0
 40
24.120388
 50
244.3048361111
 51
255.6794916667
  0
POLYLINE
  8
1
  5
2EB
  6
CONTINUOUS
 62
3
 10
0.0
 20
0.0
 30
0.0
 66
1
 70
0
  0
VERTEX
  8
1
  5
2EC
  6
CONTINUOUS
 62
3
 10
38.802677
 20
-68.069694
 30
0.0
 42
0.000873
  0
VERTEX
  8
1
  5
2ED
  6
CONTINUOUS
 62
3
 10
38.982086
 20
-68.115579
 30
0.0
 42
0.000874
  0
VERTEX
  8
1
  5
2EE
  6
CONTINUOUS
 62
3
 10
39.161589
 20
-68.160821
 30
0.0
 42
0.000874
  0
SEQEND
  8
1
  5
2EF
  0
LINE
  8
2
  5
2F1
  6
HIDDEN
 62
4
 10
39.1615
 20
-63.8876
 30
0.0
 11
38.6204
 21
-63.9449
 31
0.0
  0
LINE
  8
2
  5
2F3
  6
HIDDEN
 62
4
 10
39.1615
 20
-63.6363
 30
0.0
 11
38.6204
 21
-63.6935
 31
0.0
  0
LINE
  8
2
  5
2F5
  6
HIDDEN
 62
4
 10
38.6204
 20
-67.2374
 30
0.0
 11
39.1615
 21
-67.3033
 31
0.0
  0
LINE
  8
2
  5
2F7
  6
HIDDEN
 62
4
 10
38.6204
 20
-66.9856
 30
0.0
 11
39.1615
 21
-67.0514
 31
0.0
  0
ARC
  8
1
  5
2F9
  6
DASHDOT
 62
4
 10
44.768754
 20
-85.977797
 30
0.0
 40
24.120388
 50
116.1897444444
 51
118.1303527778
  0
ARC
  8
1
  5
2FB
  6
CONTINUOUS
 62
3
 10
44.768754
 20
-85.977797
 30
0.0
 40
24.120388
 50
104.3205083333
 51
116.1898222222
  0
ARC
  8
1
  5
2FD
  6
DASHDOT
 62
4
 10
44.248623
 20
-37.400099
 30
0.0
 40
30.687662
 50
249.1697916667
 51
250.7344694444
  0
ARC
  8
1
  5
2FF
  6
CONTINUOUS
 62
3
 10
44.248623
 20
-37.400099
 30
0.0
 40
30.687662
 50
250.7344111111
 51
251.1043583333
  0
LINE
  8
1
  5
301
  6
CONTINUOUS
 62
6
 10
32.0997
 20
-63.6026
 30
0.0
 11
32.0997
 21
-67.1753
 31
0.0
  0
LINE
  8
1
  5
303
  6
HIDDEN
 62
6
 10
32.0997
 20
-63.6026
 30
0.0
 11
31.9123
 21
-63.6026
 31
0.0
  0
LINE
  8
1
  5
305
  6
HIDDEN
 62
6
 10
32.0997
 20
-67.1753
 30
0.0
 11
31.9123
 21
-67.1753
 31
0.0
  0
LINE
  8
1
  5
307
  6
HIDDEN
 62
6
 10
31.5998
 20
-63.6026
 30
0.0
 11
31.5998
 21
-67.1753
 31
0.0
  0
LINE
  8
1
  5
309
  6
CONTINUOUS
 62
6
 10
27.4121
 20
-63.6026
 30
0.0
 11
27.4121
 21
-67.1753
 31
0.0
  0
LINE
  8
1
  5
30B
  6
HIDDEN
 62
6
 10
27.4121
 20
-63.6026
 30
0.0
 11
27.5997
 21
-63.6026
 31
0.0
  0
LINE
  8
1
  5
30D
  6
HIDDEN
 62
6
 10
27.4121
 20
-67.1753
 30
0.0
 11
27.5997
 21
-67.1753
 31
0.0
  0
LINE
  8
1
  5
30F
  6
HIDDEN
 62
6
 10
27.9122
 20
-63.6026
 30
0.0
 11
27.9122
 21
-67.1753
 31
0.0
  0
LINE
  8
1
  5
311
  6
CONTINUOUS
 62
6
 10
38.6204
 20
-63.6935
 30
0.0
 11
34.1233
 21
-64.7595
 31
0.0
  0
LINE
  8
1
  5
313
  6
CONTINUOUS
 62
30
 10
27.4121
 20
-63.6026
 30
0.0
 11
27.4121
 21
-62.3507
 31
0.0
  0
LINE
  8
1
  5
315
  6
CONTINUOUS
 62
30
 10
32.0997
 20
-63.6026
 30
0.0
 11
32.0997
 21
-62.3507
 31
0.0
  0
LINE
  8
1
  5
317
  6
CONTINUOUS
 62
30
 10
30.8947
 20
-64.093
 30
0.0
 11
28.6171
 21
-64.093
 31
0.0
  0
LINE
  8
1
  5
319
  6
CONTINUOUS
 62
30
 10
28.6171
 20
-64.6811
 30
0.0
 11
30.8947
 21
-64.6811
 31
0.0
  0
LINE
  8
1
  5
31B
  6
CONTINUOUS
 62
30
 10
38.6204
 20
-63.6935
 30
0.0
 11
38.6204
 21
-62.4292
 31
0.0
  0
LINE
  8
1
  5
31D
  6
CONTINUOUS
 62
30
 10
34.1233
 20
-64.1716
 30
0.0
 11
38.6204
 21
-62.4292
 31
0.0
  0
LINE
  8
1
  5
31F
  6
CONTINUOUS
 62
30
 10
32.0997
 20
-62.3507
 30
0.0
 11
27.4121
 21
-62.3507
 31
0.0
  0
LINE
  8
1
  5
321
  6
CONTINUOUS
 62
30
 10
30.8947
 20
-66.5036
 30
0.0
 11
28.6171
 21
-66.5036
 31
0.0
  0
LINE
  8
1
  5
323
  6
CONTINUOUS
 62
30
 10
27.4121
 20
-67.1753
 30
0.0
 11
27.4121
 21
-68.1511
 31
0.0
  0
LINE
  8
1
  5
325
  6
CONTINUOUS
 62
30
 10
32.0997
 20
-67.1753
 30
0.0
 11
32.0997
 21
-68.1511
 31
0.0
  0
LINE
  8
1
  5
327
  6
CONTINUOUS
 62
30
 10
38.6204
 20
-67.2374
 30
0.0
 11
38.6204
 21
-68.2294
 31
0.0
  0
LINE
  8
1
  5
329
  6
CONTINUOUS
 62
30
 10
34.1233
 20
-66.582
 30
0.0
 11
38.6204
 21
-68.2294
 31
0.0
  0
LINE
  8
1
  5
32B
  6
CONTINUOUS
 62
30
 10
32.0997
 20
-68.1511
 30
0.0
 11
27.4121
 21
-68.1511
 31
0.0
  0
LINE
  8
1
  5
32D
  6
CONTINUOUS
 62
30
 10
28.6171
 20
-65.9062
 30
0.0
 11
30.8947
 21
-65.9062
 31
0.0
  0
LINE
  8
1
  5
32F
  6
CONTINUOUS
 62
6
 10
38.6204
 20
-63.6935
 30
0.0
 11
38.6204
 21
-67.2374
 31
0.0
  0
LINE
  8
2
  5
331
  6
CENTER
 62
1
 10
29.756
 20
-62.1239
 30
0.0
 11
29.756
 21
-55.6117
 31
0.0
  0
ARC
  8
1
  5
333
  6
CONTINUOUS
 62
3
 10
29.756276
 20
-60.905197
 30
0.0
 40
0.80004
 50
208.1303527778
 51
269.9813944444
  0
ARC
  8
1
  5
335
  6
CONTINUOUS
 62
3
 10
29.755756
 20
-60.905197
 30
0.0
 40
0.80004
 50
270.0186055556
 51
331.8696472222
  0
POLYLINE
  8
1
  5
337
  6
CONTINUOUS
 62
3
 10
0.0
 20
0.0
 30
0.0
 66
1
 70
0
  0
VERTEX
  8
1
  5
338
  6
CONTINUOUS
 62
3
 10
29.05078
 20
-61.282391
 30
0.0
 42
-0.037622
  0
VERTEX
  8
1
  5
339
  6
CONTINUOUS
 62
3
 10
28.152648
 20
-58.812993
 30
0.0
 42
-0.036059
  0
VERTEX
  8
1
  5
33A
  6
CONTINUOUS
 62
3
 10
27.614308
 20
-56.183535
 30
0.0
 42
-0.036059
  0
SEQEND
  8
1
  5
33B
  0
LINE
  8
2
  5
33D
  6
CONTINUOUS
 62
30
 10
27.4121
 20
-56.1835
 30
0.0
 11
32.0997
 21
-56.1835
 31
0.0
  0
LINE
  8
2
  5
33F
  6
CONTINUOUS
 62
3
 10
27.7248
 20
-56.0584
 30
0.0
 11
31.7874
 21
-56.0584
 31
0.0
  0
ARC
  8
1
  5
341
  6
CONTINUOUS
 62
3
 10
165.895114
 20
-38.932309
 30
0.0
 40
139.352739
 50
186.9067527778
 51
187.1111972222
  0
POLYLINE
  8
1
  5
343
  6
CONTINUOUS
 62
3
 10
0.0
 20
0.0
 30
0.0
 66
1
 70
0
  0
VERTEX
  8
1
  5
344
  6
CONTINUOUS
 62
3
 10
30.461251
 20
-61.282391
 30
0.0
 42
0.037622
  0
VERTEX
  8
1
  5
345
  6
CONTINUOUS
 62
3
 10
31.359384
 20
-58.812993
 30
0.0
 42
0.036059
  0
VERTEX
  8
1
  5
346
  6
CONTINUOUS
 62
3
 10
31.897724
 20
-56.183535
 30
0.0
 42
0.036059
  0
SEQEND
  8
1
  5
347
  0
ARC
  8
1
  5
349
  6
CONTINUOUS
 62
3
 10
-106.383082
 20
-38.932309
 30
0.0
 40
139.352739
 50
352.8888027778
 51
353.0932472222
  0
ARC
  8
2
  5
34B
  6
HIDDEN
 62
4
 10
165.895114
 20
-38.932309
 30
0.0
 40
139.227733
 50
186.9129833333
 51
187.1111972222
  0
ARC
  8
2
  5
34D
  6
HIDDEN
 62
4
 10
-106.383082
 20
-38.932309
 30
0.0
 40
139.227733
 50
352.8888027778
 51
353.0870166667
  0
ARC
  8
2
  5
34F
  6
HIDDEN
 62
4
 10
165.895114
 20
-38.932309
 30
0.0
 40
138.977721
 50
186.9254805556
 51
187.1304833333
  0
ARC
  8
2
  5
351
  6
HIDDEN
 62
4
 10
-106.383082
 20
-38.932309
 30
0.0
 40
138.977721
 50
352.8695166667
 51
353.0745194444
  0
LINE
  8
1
  5
353
  6
CONTINUOUS
 62
30
 10
28.6171
 20
-60.5462
 30
0.0
 11
30.8947
 21
-60.5462
 31
0.0
  0
LINE
  8
1
  5
355
  6
CONTINUOUS
 62
6
 10
30.8947
 20
-65.9062
 30
0.0
 11
30.8947
 21
-64.6811
 31
0.0
  0
LINE
  8
1
  5
357
  6
CONTINUOUS
 62
6
 10
30.3948
 20
-65.9062
 30
0.0
 11
30.3948
 21
-64.6811
 31
0.0
  0
LINE
  8
1
  5
359
  6
CONTINUOUS
 62
6
 10
29.1172
 20
-65.9062
 30
0.0
 11
29.1172
 21
-64.6811
 31
0.0
  0
LINE
  8
1
  5
35B
  6
CONTINUOUS
 62
6
 10
28.6171
 20
-65.9062
 30
0.0
 11
28.6171
 21
-64.6811
 31
0.0
  0
LINE
  8
1
  5
35D
  6
CONTINUOUS
 62
30
 10
28.6171
 20
-64.6811
 30
0.0
 11
28.6171
 21
-64.1027
 31
0.0
  0
LINE
  8
1
  5
35F
  6
CONTINUOUS
 62
30
 10
30.8947
 20
-64.6811
 30
0.0
 11
30.8947
 21
-64.093
 31
0.0
  0
LINE
  8
1
  5
361
  6
CONTINUOUS
 62
30
 10
30.8947
 20
-65.9062
 30
0.0
 11
30.8947
 21
-66.5036
 31
0.0
  0
LINE
  8
1
  5
363
  6
CONTINUOUS
 62
30
 10
28.6171
 20
-65.9062
 30
0.0
 11
28.6171
 21
-66.5036
 31
0.0
  0
LINE
  8
1
  5
365
  6
CONTINUOUS
 62
30
 10
27.4121
 20
-62.3507
 30
0.0
 11
28.6171
 21
-64.093
 31
0.0
  0
LINE
  8
1
  5
367
  6
CONTINUOUS
 62
30
 10
27.4121
 20
-63.6026
 30
0.0
 11
28.6171
 21
-64.6811
 31
0.0
  0
LINE
  8
1
  5
369
  6
CONTINUOUS
 62
30
 10
30.8947
 20
-64.6811
 30
0.0
 11
32.0997
 21
-63.6026
 31
0.0
  0
LINE
  8
1
  5
36B
  6
CONTINUOUS
 62
30
 10
30.8947
 20
-64.093
 30
0.0
 11
32.0997
 21
-62.3507
 31
0.0
  0
LINE
  8
1
  5
36D
  6
CONTINUOUS
 62
30
 10
28.6171
 20
-66.5036
 30
0.0
 11
27.4121
 21
-68.1511
 31
0.0
  0
LINE
  8
1
  5
36F
  6
CONTINUOUS
 62
30
 10
30.8947
 20
-66.5036
 30
0.0
 11
32.0997
 21
-68.1511
 31
0.0
  0
LINE
  8
1
  5
371
  6
CONTINUOUS
 62
30
 10
30.8947
 20
-65.9062
 30
0.0
 11
32.0997
 21
-67.1753
 31
0.0
  0
LINE
  8
1
  5
373
  6
CONTINUOUS
 62
30
 10
28.6171
 20
-65.9062
 30
0.0
 11
27.4121
 21
-67.1753
 31
0.0
  0
LINE
  8
1
  5
375
  6
HIDDEN
 62
6
 10
27.9122
 20
-63.6026
 30
0.0
 11
29.1172
 21
-64.6811
 31
0.0
  0
LINE
  8
1
  5
377
  6
HIDDEN
 62
6
 10
31.5998
 20
-63.6026
 30
0.0
 11
30.3948
 21
-64.6811
 31
0.0
  0
LINE
  8
1
  5
379
  6
HIDDEN
 62
6
 10
30.3948
 20
-65.9062
 30
0.0
 11
31.5998
 21
-67.1753
 31
0.0
  0
LINE
  8
1
  5
37B
  6
HIDDEN
 62
6
 10
29.1172
 20
-65.9062
 30
0.0
 11
27.9122
 21
-67.1753
 31
0.0
  0
LINE
  8
1
  5
37D
  6
CONTINUOUS
 62
6
 10
38.6204
 20
-67.2537
 30
0.0
 11
34.1233
 21
-65.9845
 31
0.0
  0
LINE
  8
1
  5
37F
  6
CONTINUOUS
 62
30
 10
27.4121
 20
-56.1835
 30
0.0
 11
28.6171
 21
-60.5462
 31
0.0
  0
LINE
  8
1
  5
381
  6
CONTINUOUS
 62
30
 10
32.0997
 20
-56.1835
 30
0.0
 11
30.8947
 21
-60.5462
 31
0.0
  0
LINE
  8
1
  5
383
  6
HIDDEN
 62
6
 10
31.5809
 20
-56.1835
 30
0.0
 11
30.3758
 21
-60.5462
 31
0.0
  0
LINE
  8
1
  5
385
  6
HIDDEN
 62
6
 10
27.8942
 20
-56.0505
 30
0.0
 11
29.136
 21
-60.5462
 31
0.0
  0
LINE
  8
1
  5
387
  6
CONTINUOUS
 62
30
 10
33.4339
 20
-57.4878
 30
0.0
 11
37.9307
 21
-58.5538
 31
0.0
  0
LINE
  8
1
  5
389
  6
CONTINUOUS
 62
30
 10
33.4339
 20
-57.4878
 30
0.0
 11
33.4339
 21
-56.2237
 31
0.0
  0
LINE
  8
1
  5
38B
  6
CONTINUOUS
 62
30
 10
37.9307
 20
-57.9659
 30
0.0
 11
33.4339
 21
-56.2237
 31
0.0
  0
LINE
  8
1
  5
38D
  6
CONTINUOUS
 62
30
 10
37.9307
 20
-57.9659
 30
0.0
 11
37.9307
 21
-58.5538
 31
0.0
  0
ARC
  8
1
  5
38F
  6
CONTINUOUS
 62
3
 10
27.285308
 20
-79.772185
 30
0.0
 40
24.120388
 50
63.8101777778
 51
75.2318333333
  0
ARC
  8
1
  5
391
  6
CONTINUOUS
 62
3
 10
27.721535
 20
-32.149735
 30
0.0
 40
30.687662
 50
288.8956416667
 51
289.2655888889
  0
LINE
  8
1
  5
393
  6
CONTINUOUS
 62
30
 10
33.3498
 20
-61.9873
 30
0.0
 11
33.3498
 21
-62.9793
 31
0.0
  0
LINE
  8
1
  5
395
  6
CONTINUOUS
 62
30
 10
37.8469
 20
-61.3315
 30
0.0
 11
33.3498
 21
-62.9793
 31
0.0
  0
LINE
  8
1
  5
397
  6
CONTINUOUS
 62
30
 10
33.3498
 20
-62.0031
 30
0.0
 11
37.8469
 21
-60.7344
 31
0.0
  0
LINE
  8
1
  5
399
  6
CONTINUOUS
 62
30
 10
37.8469
 20
-60.7344
 30
0.0
 11
37.8469
 21
-61.3315
 31
0.0
  0
ARC
  8
1
  5
39B
  6
CONTINUOUS
 62
3
 10
27.201404
 20
-39.448429
 30
0.0
 40
24.120388
 50
284.7681666667
 51
295.6951638889
  0
LINE
  8
1
  5
39D
  6
CONTINUOUS
 62
6
 10
33.2847
 20
-57.8816
 30
0.0
 11
37.7816
 21
-58.9476
 31
0.0
  0
LINE
  8
1
  5
39F
  6
CONTINUOUS
 62
6
 10
33.2847
 20
-57.8816
 30
0.0
 11
33.2847
 21
-61.4255
 31
0.0
  0
LINE
  8
1
  5
3A1
  6
CONTINUOUS
 62
6
 10
33.2847
 20
-61.4417
 30
0.0
 11
37.7816
 21
-60.1727
 31
0.0
  0
LINE
  8
1
  5
3A3
  6
DASHDOT
 62
4
 10
37.6797
 20
-60.4005
 30
0.0
 11
37.6797
 21
-60.4069
 31
0.0
  0
LINE
  8
2
  5
3A5
  6
CENTER
 62
1
 10
37.9107
 20
-59.5649
 30
0.0
 11
33.1803
 21
-59.5649
 31
0.0
  0
LINE
  8
1
  5
3A7
  6
CONTINUOUS
 62
6
 10
37.7816
 20
-58.9476
 30
0.0
 11
37.7816
 21
-60.1727
 31
0.0
  0
TEXT
  8
1
  5
3A9
  6
CONTINUOUS
 62
30
 10
34.5523
 20
-62.1991
 30
0.0
  1
BOTTOM
 40
0.2365
 50
15.267486
 41
1.0
  7
ROMANS
  0
TEXT
  8
1
  5
3AB
  6
CONTINUOUS
 62
30
 10
34.922
 20
-57.6597
 30
0.0
  1
TOP
 40
0.3353
 50
349.688722
 41
1.0
  7
ROMANS
  0
TEXT
  8
1
  5
3AD
  6
CONTINUOUS
 62
30
 10
34.2009
 20
-59.3735
 30
0.0
  1
SIDE(2)
 40
0.305
 41
1.0
  7
ROMANS
  0
POLYLINE
  8
1
  5
3AF
  6
CONTINUOUS
 62
3
 10
0.0
 20
0.0
 30
0.0
 66
1
 70
1
  0
VERTEX
  8
1
  5
3B0
  6
CONTINUOUS
 62
3
 10
24.9303
 20
-53.3707
 30
0.0
  0
VERTEX
  8
1
  5
3B1
  6
CONTINUOUS
 62
3
 10
40.7264
 20
-53.3707
 30
0.0
  0
VERTEX
  8
1
  5
3B2
  6
CONTINUOUS
 62
3
 10
40.7264
 20
-70.9454
 30
0.0
  0
VERTEX
  8
1
  5
3B3
  6
CONTINUOUS
 62
3
 10
24.9303
 20
-70.9454
 30
0.0
  0
SEQEND
  8
1
  5
3B4
  0
TEXT
  8
6
  5
3B6
  6
CONTINUOUS
 62
3
 10
30.1287
 20
-72.2281
 30
0.0
  1
NOSE FRAMING
 40
0.5006
 41
1.0
  7
STANDARD
 72
4
 11
32.9469
 21
-71.9778
 31
0.0
  0
LINE
  8
2
  5
3B8
  6
CONTINUOUS
 62
3
 10
-11.0268
 20
-53.5634
 30
0.0
 11
-8.002
 21
-53.5634
 31
0.0
  0
LINE
  8
2
  5
3BA
  6
CONTINUOUS
 62
3
 10
-10.0531
 20
-46.0187
 30
0.0
 11
-7.0281
 21
-46.0187
 31
0.0
  0
LINE
  8
2
  5
3BC
  6
CONTINUOUS
 62
3
 10
-11.0268
 20
-53.5634
 30
0.0
 11
-10.0531
 21
-46.0187
 31
0.0
  0
LINE
  8
2
  5
3BE
  6
CONTINUOUS
 62
3
 10
-8.002
 20
-53.5634
 30
0.0
 11
-7.0281
 21
-46.0187
 31
0.0
  0
TEXT
  8
10
  5
3C0
  6
CONTINUOUS
 62
3
 10
-10.7536
 20
-53.3345
 30
0.0
  1
L.E.
 40
0.1915
 50
85.244639
 41
1.0
  7
ROMANS
  0
TEXT
  8
10
  5
3C2
  6
CONTINUOUS
 62
3
 10
-10.1146
 20
-53.4829
 30
0.0
  1
CENTER
 40
0.1548
 41
1.0
  7
ROMANS
  0
LINE
  8
2
  5
3C4
  6
CONTINUOUS
 62
3
 10
12.3098
 20
-53.6316
 30
0.0
 11
15.3348
 21
-53.6316
 31
0.0
  0
LINE
  8
2
  5
3C6
  6
CONTINUOUS
 62
3
 10
15.3348
 20
-53.6316
 30
0.0
 11
14.2094
 21
-44.9111
 31
0.0
  0
ARC
  8
2
  5
3C8
  6
CONTINUOUS
 62
3
 10
1.228149
 20
12.528911
 30
0.0
 40
58.888543
 50
279.8085055556
 51
282.7346944444
  0
LINE
  8
2
  5
3CA
  6
CONTINUOUS
 62
3
 10
12.3098
 20
-53.6316
 30
0.0
 11
11.2602
 21
-45.4989
 31
0.0
  0
TEXT
  8
10
  5
3CC
  6
CONTINUOUS
 62
3
 10
14.3052
 20
-48.3686
 30
0.0
  1
T.E.
 40
0.2071
 50
277.760258
 41
1.0
  7
ROMANS
  0
TEXT
  8
10
  5
3CE
  6
CONTINUOUS
 62
3
 10
12.9
 20
-53.5085
 30
0.0
  1
CENTER
 40
0.2091
 41
1.0
  7
ROMANS
  0
LINE
  8
2
  5
3D0
  6
CONTINUOUS
 62
3
 10
7.9505
 20
-53.6315
 30
0.0
 11
10.9756
 21
-53.6315
 31
0.0
  0
ARC
  8
2
  5
3D2
  6
CONTINUOUS
 62
3
 10
-0.105997
 20
12.529011
 30
0.0
 40
58.888543
 50
276.8887555556
 51
279.8085055556
  0
LINE
  8
2
  5
3D4
  6
CONTINUOUS
 62
3
 10
10.9756
 20
-53.6315
 30
0.0
 11
9.926
 21
-45.4987
 31
0.0
  0
LINE
  8
2
  5
3D6
  6
CONTINUOUS
 62
3
 10
7.9505
 20
-53.6315
 30
0.0
 11
6.9572
 21
-45.9344
 31
0.0
  0
TEXT
  8
10
  5
3D8
  6
CONTINUOUS
 62
3
 10
8.8668
 20
-53.4829
 30
0.0
  1
CENTER
 40
0.1548
 41
1.0
  7
ROMANS
  0
TEXT
  8
10
  5
3DA
  6
CONTINUOUS
 62
3
 10
8.5262
 20
-50.3314
 30
0.0
  1
RIGHT
 40
0.1548
 41
1.0
  7
ROMANS
  0
LINE
  8
2
  5
3DC
  6
CONTINUOUS
 62
3
 10
-7.3836
 20
-53.6624
 30
0.0
 11
-4.3585
 21
-53.6624
 31
0.0
  0
LINE
  8
2
  5
3DE
  6
CONTINUOUS
 62
3
 10
-6.426
 20
-46.2425
 30
0.0
 11
-4.5858
 21
-46.2425
 31
0.0
  0
ARC
  8
2
  5
3E0
  6
CONTINUOUS
 62
3
 10
-8.754691
 20
12.49821
 30
0.0
 40
58.888543
 50
274.05945
 51
275.2283555556
  0
LINE
  8
2
  5
3E2
  6
CONTINUOUS
 62
3
 10
-7.3836
 20
-53.6624
 30
0.0
 11
-6.426
 21
-46.2425
 31
0.0
  0
LINE
  8
2
  5
3E4
  6
CONTINUOUS
 62
3
 10
-4.3585
 20
-53.6624
 30
0.0
 11
-3.3884
 21
-46.1452
 31
0.0
  0
TEXT
  8
10
  5
3E6
  6
CONTINUOUS
 62
3
 10
-6.2794
 20
-53.5136
 30
0.0
  1
CENTER
 40
0.1548
 41
1.0
  7
ROMANS
  0
TEXT
  8
10
  5
3E8
  6
CONTINUOUS
 62
3
 10
-6.0523
 20
-50.2488
 30
0.0
  1
LEFT
 40
0.1548
 41
1.0
  7
ROMANS
  0
LINE
  8
2
  5
3EA
  6
CONTINUOUS
 62
3
 10
-2.247
 20
-53.4659
 30
0.0
 11
1.4134
 21
-53.4659
 31
0.0
  0
ARC
  8
2
  5
3EC
  6
CONTINUOUS
 62
3
 10
-6.643119
 20
12.694617
 30
0.0
 40
58.888543
 50
275.2283555556
 51
276.8887555556
  0
LINE
  8
2
  5
3EE
  6
CONTINUOUS
 62
3
 10
1.4134
 20
-53.4659
 30
0.0
 11
0.42
 21
-45.7688
 31
0.0
  0
LINE
  8
2
  5
3F0
  6
CONTINUOUS
 62
3
 10
-2.247
 20
-53.4659
 30
0.0
 11
-1.277
 21
-45.949
 31
0.0
  0
TEXT
  8
10
  5
3F2
  6
CONTINUOUS
 62
3
 10
-0.8765
 20
-53.3173
 30
0.0
  1
CENTER
 40
0.1548
 41
1.0
  7
ROMANS
  0
TEXT
  8
10
  5
3F4
  6
CONTINUOUS
 62
3
 10
-0.9333
 20
-50.1658
 30
0.0
  1
MIDDLE
 40
0.1548
 41
1.0
  7
ROMANS
  0
LINE
  8
3
  5
3F6
  6
CONTINUOUS
 62
3
 10
67.7139
 20
-48.9164
 30
0.0
 11
67.7139
 21
-45.9163
 31
0.0
  0
LINE
  8
3
  5
3F8
  6
CONTINUOUS
 62
3
 10
63.8965
 20
-48.9164
 30
0.0
 11
63.8965
 21
-45.9163
 31
0.0
  0
LINE
  8
5
  5
3FA
  6
CENTER
 62
1
 10
64.2997
 20
-46.383
 30
0.0
 11
67.311
 21
-46.383
 31
0.0
  0
LINE
  8
3
  5
3FC
  6
CONTINUOUS
 62
3
 10
67.8389
 20
-48.9164
 30
0.0
 11
67.8389
 21
-45.9163
 31
0.0
  0
LINE
  8
3
  5
3FE
  6
CONTINUOUS
 62
3
 10
63.7715
 20
-48.9164
 30
0.0
 11
63.7715
 21
-45.9163
 31
0.0
  0
LINE
  8
5
  5
400
  6
CENTER
 62
1
 10
65.8052
 20
-44.5635
 30
0.0
 11
65.8052
 21
-50.4049
 31
0.0
  0
LINE
  8
3
  5
402
  6
CONTINUOUS
 62
3
 10
67.589
 20
-48.9164
 30
0.0
 11
67.589
 21
-45.9163
 31
0.0
  0
LINE
  8
3
  5
404
  6
CONTINUOUS
 62
3
 10
64.0216
 20
-48.9164
 30
0.0
 11
64.0216
 21
-45.9163
 31
0.0
  0
LINE
  8
5
  5
406
  6
CONTINUOUS
 62
3
 10
63.7715
 20
-45.9163
 30
0.0
 11
64.0216
 21
-45.9163
 31
0.0
  0
LINE
  8
5
  5
408
  6
CONTINUOUS
 62
3
 10
67.589
 20
-45.9163
 30
0.0
 11
67.8389
 21
-45.9163
 31
0.0
  0
LINE
  8
5
  5
40A
  6
CONTINUOUS
 62
3
 10
67.589
 20
-48.9164
 30
0.0
 11
67.8389
 21
-48.9164
 31
0.0
  0
LINE
  8
5
  5
40C
  6
CONTINUOUS
 62
3
 10
64.0216
 20
-48.9164
 30
0.0
 11
63.7715
 21
-48.9164
 31
0.0
  0
LINE
  8
5
  5
40E
  6
CENTER
 62
1
 10
67.8389
 20
-47.4163
 30
0.0
 11
63.7715
 21
-47.4163
 31
0.0
  0
POLYLINE
  8
5
  5
410
  6
CONTINUOUS
 62
3
 10
0.0
 20
0.0
 30
0.0
 66
1
 70
0
  0
VERTEX
  8
5
  5
411
  6
CONTINUOUS
 62
3
 10
63.771561
 20
-48.916409
 30
0.0
 42
0.066439
  0
VERTEX
  8
5
  5
412
  6
CONTINUOUS
 62
3
 10
63.810638
 20
-49.206791
 30
0.0
 42
0.06249
  0
VERTEX
  8
5
  5
413
  6
CONTINUOUS
 62
3
 10
63.926365
 20
-49.486014
 30
0.0
 42
0.056288
  0
VERTEX
  8
5
  5
414
  6
CONTINUOUS
 62
3
 10
64.114296
 20
-49.743348
 30
0.0
 42
0.049807
  0
VERTEX
  8
5
  5
415
  6
CONTINUOUS
 62
3
 10
64.367209
 20
-49.968902
 30
0.0
 42
0.044273
  0
VERTEX
  8
5
  5
416
  6
CONTINUOUS
 62
3
 10
64.675384
 20
-50.15401
 30
0.0
 42
0.040143
  0
VERTEX
  8
5
  5
417
  6
CONTINUOUS
 62
3
 10
65.026979
 20
-50.291558
 30
0.0
 42
0.037465
  0
VERTEX
  8
5
  5
418
  6
CONTINUOUS
 62
3
 10
65.408481
 20
-50.376259
 30
0.0
 42
0.036158
  0
VERTEX
  8
5
  5
419
  6
CONTINUOUS
 62
3
 10
65.805231
 20
-50.404859
 30
0.0
 42
0.036158
  0
VERTEX
  8
5
  5
41A
  6
CONTINUOUS
 62
3
 10
66.20198
 20
-50.376259
 30
0.0
 42
0.037465
  0
VERTEX
  8
5
  5
41B
  6
CONTINUOUS
 62
3
 10
66.583482
 20
-50.291558
 30
0.0
 42
0.040143
  0
VERTEX
  8
5
  5
41C
  6
CONTINUOUS
 62
3
 10
66.935077
 20
-50.15401
 30
0.0
 42
0.044273
  0
VERTEX
  8
5
  5
41D
  6
CONTINUOUS
 62
3
 10
67.243252
 20
-49.968902
 30
0.0
 42
0.049807
  0
VERTEX
  8
5
  5
41E
  6
CONTINUOUS
 62
3
 10
67.496165
 20
-49.743348
 30
0.0
 42
0.056288
  0
VERTEX
  8
5
  5
41F
  6
CONTINUOUS
 62
3
 10
67.684096
 20
-49.486014
 30
0.0
 42
0.06249
  0
VERTEX
  8
5
  5
420
  6
CONTINUOUS
 62
3
 10
67.799823
 20
-49.206791
 30
0.0
 42
0.066439
  0
VERTEX
  8
5
  5
421
  6
CONTINUOUS
 62
3
 10
67.8389
 20
-48.916409
 30
0.0
 42
0.066439
  0
SEQEND
  8
5
  5
422
  0
POLYLINE
  8
4
  5
424
  6
CONTINUOUS
 62
3
 10
0.0
 20
0.0
 30
0.0
 66
1
 70
0
  0
VERTEX
  8
4
  5
425
  6
CONTINUOUS
 62
3
 10
67.838703
 20
-45.916307
 30
0.0
 42
0.071372
  0
VERTEX
  8
4
  5
426
  6
CONTINUOUS
 62
3
 10
67.794367
 20
-45.651723
 30
0.0
 42
0.065201
  0
VERTEX
  8
4
  5
427
  6
CONTINUOUS
 62
3
 10
67.674496
 20
-45.397672
 30
0.0
 42
0.056556
  0
VERTEX
  8
4
  5
428
  6
CONTINUOUS
 62
3
 10
67.483642
 20
-45.163801
 30
0.0
 42
0.048311
  0
VERTEX
  8
4
  5
429
  6
CONTINUOUS
 62
3
 10
67.229053
 20
-44.958992
 30
0.0
 42
0.041777
  0
VERTEX
  8
4
  5
42A
  6
CONTINUOUS
 62
3
 10
66.920396
 20
-44.791022
 30
0.0
 42
0.037171
  0
VERTEX
  8
4
  5
42B
  6
CONTINUOUS
 62
3
 10
66.569392
 20
-44.666269
 30
0.0
 42
0.034309
  0
VERTEX
  8
4
  5
42C
  6
CONTINUOUS
 62
3
 10
66.189371
 20
-44.58947
 30
0.0
 42
0.032973
  0
VERTEX
  8
4
  5
42D
  6
CONTINUOUS
 62
3
 10
65.794762
 20
-44.563543
 30
0.0
 42
0.033039
  0
VERTEX
  8
4
  5
42E
  6
CONTINUOUS
 62
3
 10
65.400551
 20
-44.58947
 30
0.0
 42
0.034515
  0
VERTEX
  8
4
  5
42F
  6
CONTINUOUS
 62
3
 10
65.021706
 20
-44.666269
 30
0.0
 42
0.037534
  0
VERTEX
  8
4
  5
430
  6
CONTINUOUS
 62
3
 10
64.672615
 20
-44.791022
 30
0.0
 42
0.04232
  0
VERTEX
  8
4
  5
431
  6
CONTINUOUS
 62
3
 10
64.366534
 20
-44.958992
 30
0.0
 42
0.049039
  0
VERTEX
  8
4
  5
432
  6
CONTINUOUS
 62
3
 10
64.115085
 20
-45.163801
 30
0.0
 42
0.057403
  0
VERTEX
  8
4
  5
433
  6
CONTINUOUS
 62
3
 10
63.927817
 20
-45.397672
 30
0.0
 42
0.065957
  0
VERTEX
  8
4
  5
434
  6
CONTINUOUS
 62
3
 10
63.811841
 20
-45.651723
 30
0.0
 42
0.071707
  0
VERTEX
  8
4
  5
435
  6
CONTINUOUS
 62
3
 10
63.771561
 20
-45.916307
 30
0.0
 42
0.071707
  0
SEQEND
  8
4
  5
436
  0
LINE
  8
4
  5
438
  6
HIDDEN
 62
4
 10
64.0216
 20
-48.9164
 30
0.0
 11
67.589
 21
-48.9164
 31
0.0
  0
POLYLINE
  8
4
  5
43A
  6
HIDDEN
 62
4
 10
0.0
 20
0.0
 30
0.0
 66
1
 70
0
  0
VERTEX
  8
4
  5
43B
  6
HIDDEN
 62
4
 10
64.02157
 20
-48.916409
 30
0.0
 42
0.077272
  0
VERTEX
  8
4
  5
43C
  6
HIDDEN
 62
4
 10
64.055842
 20
-49.13363
 30
0.0
 42
0.069452
  0
VERTEX
  8
4
  5
43D
  6
HIDDEN
 62
4
 10
64.157343
 20
-49.342503
 30
0.0
 42
0.058452
  0
VERTEX
  8
4
  5
43E
  6
HIDDEN
 62
4
 10
64.322171
 20
-49.535002
 30
0.0
 42
0.048378
  0
VERTEX
  8
4
  5
43F
  6
HIDDEN
 62
4
 10
64.543992
 20
-49.703728
 30
0.0
 42
0.040745
  0
VERTEX
  8
4
  5
440
  6
HIDDEN
 62
4
 10
64.814282
 20
-49.842199
 30
0.0
 42
0.035549
  0
VERTEX
  8
4
  5
441
  6
HIDDEN
 62
4
 10
65.122653
 20
-49.945091
 30
0.0
 42
0.032384
  0
VERTEX
  8
4
  5
442
  6
HIDDEN
 62
4
 10
65.457256
 20
-50.008452
 30
0.0
 42
0.030894
  0
VERTEX
  8
4
  5
443
  6
HIDDEN
 62
4
 10
65.805231
 20
-50.029847
 30
0.0
 42
0.030894
  0
VERTEX
  8
4
  5
444
  6
HIDDEN
 62
4
 10
66.153205
 20
-50.008452
 30
0.0
 42
0.032384
  0
VERTEX
  8
4
  5
445
  6
HIDDEN
 62
4
 10
66.487808
 20
-49.945091
 30
0.0
 42
0.035549
  0
VERTEX
  8
4
  5
446
  6
HIDDEN
 62
4
 10
66.796179
 20
-49.842199
 30
0.0
 42
0.040745
  0
VERTEX
  8
4
  5
447
  6
HIDDEN
 62
4
 10
67.066469
 20
-49.703728
 30
0.0
 42
0.048378
  0
VERTEX
  8
4
  5
448
  6
HIDDEN
 62
4
 10
67.28829
 20
-49.535002
 30
0.0
 42
0.058452
  0
VERTEX
  8
4
  5
449
  6
HIDDEN
 62
4
 10
67.453118
 20
-49.342503
 30
0.0
 42
0.069452
  0
VERTEX
  8
4
  5
44A
  6
HIDDEN
 62
4
 10
67.554619
 20
-49.13363
 30
0.0
 42
0.077272
  0
VERTEX
  8
4
  5
44B
  6
HIDDEN
 62
4
 10
67.588891
 20
-48.916409
 30
0.0
 42
0.077272
  0
SEQEND
  8
4
  5
44C
  0
POLYLINE
  8
4
  5
44E
  6
HIDDEN
 62
4
 10
0.0
 20
0.0
 30
0.0
 66
1
 70
0
  0
VERTEX
  8
4
  5
44F
  6
HIDDEN
 62
4
 10
67.588891
 20
-45.916307
 30
0.0
 42
0.074025
  0
VERTEX
  8
4
  5
450
  6
HIDDEN
 62
4
 10
67.554619
 20
-45.68898
 30
0.0
 42
0.067481
  0
VERTEX
  8
4
  5
451
  6
HIDDEN
 62
4
 10
67.453118
 20
-45.470389
 30
0.0
 42
0.057962
  0
VERTEX
  8
4
  5
452
  6
HIDDEN
 62
4
 10
67.28829
 20
-45.268934
 30
0.0
 42
0.048901
  0
VERTEX
  8
4
  5
453
  6
HIDDEN
 62
4
 10
67.066469
 20
-45.092358
 30
0.0
 42
0.0418
  0
VERTEX
  8
4
  5
454
  6
HIDDEN
 62
4
 10
66.796179
 20
-44.947445
 30
0.0
 42
0.036844
  0
VERTEX
  8
4
  5
455
  6
HIDDEN
 62
4
 10
66.487808
 20
-44.839766
 30
0.0
 42
0.033775
  0
VERTEX
  8
4
  5
456
  6
HIDDEN
 62
4
 10
66.153205
 20
-44.773457
 30
0.0
 42
0.032317
  0
VERTEX
  8
4
  5
457
  6
HIDDEN
 62
4
 10
65.805231
 20
-44.751067
 30
0.0
 42
0.032317
  0
VERTEX
  8
4
  5
458
  6
HIDDEN
 62
4
 10
65.457256
 20
-44.773457
 30
0.0
 42
0.033775
  0
VERTEX
  8
4
  5
459
  6
HIDDEN
 62
4
 10
65.122653
 20
-44.839766
 30
0.0
 42
0.036844
  0
VERTEX
  8
4
  5
45A
  6
HIDDEN
 62
4
 10
64.814282
 20
-44.947445
 30
0.0
 42
0.0418
  0
VERTEX
  8
4
  5
45B
  6
HIDDEN
 62
4
 10
64.543992
 20
-45.092358
 30
0.0
 42
0.048901
  0
VERTEX
  8
4
  5
45C
  6
HIDDEN
 62
4
 10
64.322171
 20
-45.268934
 30
0.0
 42
0.057962
  0
VERTEX
  8
4
  5
45D
  6
HIDDEN
 62
4
 10
64.157343
 20
-45.470389
 30
0.0
 42
0.067481
  0
VERTEX
  8
4
  5
45E
  6
HIDDEN
 62
4
 10
64.055842
 20
-45.68898
 30
0.0
 42
0.074025
  0
VERTEX
  8
4
  5
45F
  6
HIDDEN
 62
4
 10
64.02157
 20
-45.916307
 30
0.0
 42
0.074025
  0
SEQEND
  8
4
  5
460
  0
LINE
  8
5
  5
462
  6
CENTER
 62
1
 10
68.8838
 20
-47.4641
 30
0.0
 11
72.4511
 21
-47.4641
 31
0.0
  0
LINE
  8
5
  5
464
  6
CENTER
 62
1
 10
70.6675
 20
-45.8323
 30
0.0
 11
70.6675
 21
-49.9977
 31
0.0
  0
LINE
  8
3
  5
466
  6
CONTINUOUS
 62
3
 10
72.4511
 20
-49.9977
 30
0.0
 11
72.4511
 21
-46.9976
 31
0.0
  0
LINE
  8
3
  5
468
  6
CONTINUOUS
 62
3
 10
68.8838
 20
-49.9977
 30
0.0
 11
68.8838
 21
-46.9976
 31
0.0
  0
CIRCLE
  8
5
  5
46A
  6
DIVIDE
 62
4
 10
70.667496
 20
-47.464159
 30
0.0
 40
1.250043
  0
LINE
  8
5
  5
46C
  6
CENTER
 62
1
 10
72.4511
 20
-48.4976
 30
0.0
 11
68.8838
 21
-48.4976
 31
0.0
  0
LINE
  8
4
  5
46E
  6
CONTINUOUS
 62
3
 10
68.8838
 20
-49.9977
 30
0.0
 11
72.4511
 21
-49.9977
 31
0.0
  0
POLYLINE
  8
4
  5
470
  6
CONTINUOUS
 62
3
 10
0.0
 20
0.0
 30
0.0
 66
1
 70
0
  0
VERTEX
  8
4
  5
471
  6
CONTINUOUS
 62
3
 10
72.451156
 20
-46.997544
 30
0.0
 42
0.074025
  0
VERTEX
  8
4
  5
472
  6
CONTINUOUS
 62
3
 10
72.416884
 20
-46.770217
 30
0.0
 42
0.067481
  0
VERTEX
  8
4
  5
473
  6
CONTINUOUS
 62
3
 10
72.315383
 20
-46.551626
 30
0.0
 42
0.057962
  0
VERTEX
  8
4
  5
474
  6
CONTINUOUS
 62
3
 10
72.150555
 20
-46.350171
 30
0.0
 42
0.048901
  0
VERTEX
  8
4
  5
475
  6
CONTINUOUS
 62
3
 10
71.928734
 20
-46.173595
 30
0.0
 42
0.0418
  0
VERTEX
  8
4
  5
476
  6
CONTINUOUS
 62
3
 10
71.658445
 20
-46.028682
 30
0.0
 42
0.036844
  0
VERTEX
  8
4
  5
477
  6
CONTINUOUS
 62
3
 10
71.350073
 20
-45.921002
 30
0.0
 42
0.033775
  0
VERTEX
  8
4
  5
478
  6
CONTINUOUS
 62
3
 10
71.015471
 20
-45.854694
 30
0.0
 42
0.032317
  0
VERTEX
  8
4
  5
479
  6
CONTINUOUS
 62
3
 10
70.667496
 20
-45.832304
 30
0.0
 42
0.032317
  0
VERTEX
  8
4
  5
47A
  6
CONTINUOUS
 62
3
 10
70.319521
 20
-45.854694
 30
0.0
 42
0.033775
  0
VERTEX
  8
4
  5
47B
  6
CONTINUOUS
 62
3
 10
69.984918
 20
-45.921002
 30
0.0
 42
0.036844
  0
VERTEX
  8
4
  5
47C
  6
CONTINUOUS
 62
3
 10
69.676547
 20
-46.028682
 30
0.0
 42
0.0418
  0
VERTEX
  8
4
  5
47D
  6
CONTINUOUS
 62
3
 10
69.406257
 20
-46.173595
 30
0.0
 42
0.048901
  0
VERTEX
  8
4
  5
47E
  6
CONTINUOUS
 62
3
 10
69.184436
 20
-46.350171
 30
0.0
 42
0.057962
  0
VERTEX
  8
4
  5
47F
  6
CONTINUOUS
 62
3
 10
69.019608
 20
-46.551626
 30
0.0
 42
0.067481
  0
VERTEX
  8
4
  5
480
  6
CONTINUOUS
 62
3
 10
68.918108
 20
-46.770217
 30
0.0
 42
0.074025
  0
VERTEX
  8
4
  5
481
  6
CONTINUOUS
 62
3
 10
68.883835
 20
-46.997544
 30
0.0
 42
0.074025
  0
SEQEND
  8
4
  5
482
  0
LINE
  8
1
  5
484
  6
CONTINUOUS
 62
3
 10
61.6402
 20
-45.6116
 30
0.0
 11
58.7586
 21
-45.6116
 31
0.0
  0
LINE
  8
1
  5
486
  6
HIDDEN
 62
4
 10
61.6402
 20
-45.9866
 30
0.0
 11
58.7586
 21
-45.9866
 31
0.0
  0
LINE
  8
1
  5
488
  6
CONTINUOUS
 62
3
 10
57.9226
 20
-48.3678
 30
0.0
 11
57.7975
 21
-48.3678
 31
0.0
  0
LINE
  8
2
  5
48A
  6
CONTINUOUS
 62
3
 10
62.5247
 20
-47.6275
 30
0.0
 11
62.5247
 21
-48.1276
 31
0.0
  0
LINE
  8
1
  5
48C
  6
CONTINUOUS
 62
3
 10
61.6402
 20
-45.6116
 30
0.0
 11
61.6402
 21
-47.3873
 31
0.0
  0
LINE
  8
1
  5
48E
  6
CONTINUOUS
 62
3
 10
58.7586
 20
-45.6116
 30
0.0
 11
58.7586
 21
-47.3873
 31
0.0
  0
LINE
  8
1
  5
490
  6
CONTINUOUS
 62
3
 10
62.3997
 20
-48.3678
 30
0.0
 11
57.9226
 21
-48.3678
 31
0.0
  0
LINE
  8
1
  5
492
  6
CONTINUOUS
 62
3
 10
62.3997
 20
-47.3873
 30
0.0
 11
61.6402
 21
-47.3873
 31
0.0
  0
LINE
  8
1
  5
494
  6
CONTINUOUS
 62
3
 10
58.7586
 20
-47.3873
 30
0.0
 11
57.9226
 21
-47.3873
 31
0.0
  0
LINE
  8
1
  5
496
  6
CONTINUOUS
 62
3
 10
61.2652
 20
-46.3618
 30
0.0
 11
59.1337
 21
-46.3618
 31
0.0
  0
LINE
  8
1
  5
498
  6
CONTINUOUS
 62
3
 10
61.2652
 20
-46.3618
 30
0.0
 11
61.2652
 21
-47.0124
 31
0.0
  0
LINE
  8
1
  5
49A
  6
CONTINUOUS
 62
3
 10
59.1337
 20
-46.3618
 30
0.0
 11
59.1337
 21
-47.0124
 31
0.0
  0
LINE
  8
1
  5
49C
  6
CONTINUOUS
 62
3
 10
61.2652
 20
-47.0124
 30
0.0
 11
59.1337
 21
-47.0124
 31
0.0
  0
LINE
  8
10
  5
49E
  6
CONTINUOUS
 62
2
 10
62.5247
 20
-47.8775
 30
0.0
 11
61.9754
 21
-47.8775
 31
0.0
  0
LINE
  8
10
  5
4A0
  6
CONTINUOUS
 62
2
 10
62.5247
 20
-47.6275
 30
0.0
 11
62.3997
 21
-47.6275
 31
0.0
  0
LINE
  8
10
  5
4A2
  6
CONTINUOUS
 62
2
 10
62.5247
 20
-48.1276
 30
0.0
 11
62.3997
 21
-48.1276
 31
0.0
  0
LINE
  8
2
  5
4A4
  6
CONTINUOUS
 62
2
 10
62.3997
 20
-47.3873
 30
0.0
 11
62.3997
 21
-47.6275
 31
0.0
  0
LINE
  8
2
  5
4A6
  6
CONTINUOUS
 62
2
 10
62.3997
 20
-48.1276
 30
0.0
 11
62.3997
 21
-48.3678
 31
0.0
  0
LINE
  8
2
  5
4A8
  6
CONTINUOUS
 62
3
 10
57.7976
 20
-47.6275
 30
0.0
 11
57.7976
 21
-48.1276
 31
0.0
  0
LINE
  8
10
  5
4AA
  6
CONTINUOUS
 62
2
 10
57.7976
 20
-47.8775
 30
0.0
 11
58.3471
 21
-47.8775
 31
0.0
  0
LINE
  8
10
  5
4AC
  6
CONTINUOUS
 62
2
 10
57.7976
 20
-47.6275
 30
0.0
 11
57.9226
 21
-47.6275
 31
0.0
  0
LINE
  8
10
  5
4AE
  6
CONTINUOUS
 62
2
 10
57.7976
 20
-48.1276
 30
0.0
 11
57.9226
 21
-48.1276
 31
0.0
  0
LINE
  8
2
  5
4B0
  6
CONTINUOUS
 62
2
 10
57.9226
 20
-47.3873
 30
0.0
 11
57.9226
 21
-47.6275
 31
0.0
  0
LINE
  8
2
  5
4B2
  6
CONTINUOUS
 62
2
 10
57.9226
 20
-48.1276
 30
0.0
 11
57.9226
 21
-48.3678
 31
0.0
  0
ARC
  8
2
  5
4B4
  6
CONTINUOUS
 62
3
 10
52.337774
 20
4.484151
 30
0.0
 40
58.763538
 50
276.2419388889
 51
278.9905583333
  0
ARC
  8
2
  5
4B6
  6
CONTINUOUS
 62
3
 10
52.337774
 20
-108.680101
 30
0.0
 40
58.763538
 50
81.0094416667
 51
83.7580611111
  0
CIRCLE
  8
2
  5
4B8
  6
CONTINUOUS
 62
3
 10
59.127448
 20
-51.647499
 30
0.0
 40
0.067957
  0
CIRCLE
  8
2
  5
4BA
  6
CONTINUOUS
 62
3
 10
61.126605
 20
-51.647499
 30
0.0
 40
0.067957
  0
CIRCLE
  8
2
  5
4BC
  6
CONTINUOUS
 62
3
 10
61.126605
 20
-51.132804
 30
0.0
 40
0.067957
  0
CIRCLE
  8
2
  5
4BE
  6
CONTINUOUS
 62
3
 10
59.127448
 20
-51.132804
 30
0.0
 40
0.067957
  0
ARC
  8
2
  5
4C0
  6
CONTINUOUS
 62
3
 10
59.985307
 20
-51.094099
 30
0.0
 40
0.100003
 50
186.1442527778
 51
231.6811277778
  0
ARC
  8
2
  5
4C2
  6
CONTINUOUS
 62
3
 10
59.512475
 20
-51.094099
 30
0.0
 40
0.100003
 50
308.3188722222
 51
353.8557472222
  0
CIRCLE
  8
2
  5
4C4
  6
CONTINUOUS
 62
3
 10
59.748891
 20
-50.741055
 30
0.0
 40
0.033974
  0
CIRCLE
  8
2
  5
4C6
  6
CONTINUOUS
 62
3
 10
59.748891
 20
-50.895594
 30
0.0
 40
0.033974
  0
CIRCLE
  8
2
  5
4C8
  6
CONTINUOUS
 62
3
 10
59.748891
 20
-51.054142
 30
0.0
 40
0.033974
  0
TEXT
  8
2
  5
4CA
  6
CONTINUOUS
 62
3
 10
60.7769
 20
-51.5456
 30
0.0
  1
S-148
 40
0.0815
 50
90.0
 41
1.0
  7
STANDARD
 72
4
 11
60.7361
 21
-51.3791
 31
0.0
  0
TEXT
  8
2
  5
4CC
  6
CONTINUOUS
 62
3
 10
60.5689
 20
-51.6058
 30
0.0
  1
FUTABA
 40
0.0815
 50
90.0
 41
1.0
  7
STANDARD
 72
4
 11
60.5281
 21
-51.3784
 31
0.0
  0
LINE
  8
2
  5
4CE
  6
CONTINUOUS
 62
3
 10
60.8614
 20
-50.9999
 30
0.0
 11
60.3922
 21
-50.9999
 31
0.0
  0
LINE
  8
2
  5
4D0
  6
CONTINUOUS
 62
3
 10
60.8614
 20
-51.7542
 30
0.0
 11
60.8614
 21
-50.9999
 31
0.0
  0
LINE
  8
2
  5
4D2
  6
CONTINUOUS
 62
3
 10
60.3922
 20
-51.7542
 30
0.0
 11
60.8614
 21
-51.7542
 31
0.0
  0
LINE
  8
2
  5
4D4
  6
CONTINUOUS
 62
3
 10
60.3922
 20
-50.9999
 30
0.0
 11
60.3922
 21
-51.7542
 31
0.0
  0
LINE
  8
2
  5
4D6
  6
CONTINUOUS
 62
3
 10
58.9989
 20
-51.8207
 30
0.0
 11
61.2489
 21
-51.8207
 31
0.0
  0
LINE
  8
2
  5
4D8
  6
CONTINUOUS
 62
3
 10
59.6511
 20
-50.7411
 30
0.0
 11
59.6118
 21
-51.1049
 31
0.0
  0
LINE
  8
2
  5
4DA
  6
CONTINUOUS
 62
3
 10
59.8467
 20
-50.7411
 30
0.0
 11
59.8859
 21
-51.1049
 31
0.0
  0
ARC
  8
2
  5
4DC
  6
CONTINUOUS
 62
3
 10
59.748891
 20
-50.741055
 30
0.0
 40
0.097829
 50
360.0
 51
180.0
  0
LINE
  8
2
  5
4DE
  6
CONTINUOUS
 62
3
 10
60.999
 20
-50.9511
 30
0.0
 11
60.999
 21
-51.8207
 31
0.0
  0
LINE
  8
2
  5
4E0
  6
CONTINUOUS
 62
3
 10
59.2489
 20
-50.9511
 30
0.0
 11
59.2489
 21
-51.8207
 31
0.0
  0
LINE
  8
2
  5
4E2
  6
CONTINUOUS
 62
3
 10
61.2489
 20
-51.8207
 30
0.0
 11
61.2489
 21
-50.9511
 31
0.0
  0
LINE
  8
2
  5
4E4
  6
CONTINUOUS
 62
3
 10
58.9989
 20
-50.9511
 30
0.0
 11
58.9989
 21
-51.8207
 31
0.0
  0
LINE
  8
2
  5
4E6
  6
CENTER
 62
1
 10
61.7355
 20
-52.098
 30
0.0
 11
58.3452
 21
-52.098
 31
0.0
  0
ARC
  8
2
  5
4E8
  6
CONTINUOUS
 62
3
 10
59.748891
 20
-51.390151
 30
0.0
 40
0.28129
 50
128.318875
 51
231.6811277778
  0
ARC
  8
2
  5
4EA
  6
CONTINUOUS
 62
3
 10
59.748891
 20
-51.390151
 30
0.0
 40
0.28129
 50
231.6822055556
 51
51.6811277778
  0
LINE
  8
2
  5
4EC
  6
CONTINUOUS
 62
3
 10
59.7489
 20
-51.3901
 30
0.0
 11
59.7489
 21
-51.4576
 31
0.0
  0
LINE
  8
2
  5
4EE
  6
CONTINUOUS
 62
3
 10
59.7489
 20
-51.3901
 30
0.0
 11
59.8164
 21
-51.3901
 31
0.0
  0
LINE
  8
2
  5
4F0
  6
CONTINUOUS
 62
3
 10
59.7489
 20
-51.3901
 30
0.0
 11
59.7489
 21
-51.3225
 31
0.0
  0
LINE
  8
2
  5
4F2
  6
CONTINUOUS
 62
3
 10
59.7489
 20
-51.3901
 30
0.0
 11
59.6813
 21
-51.3901
 31
0.0
  0
CIRCLE
  8
2
  5
4F4
  6
CONTINUOUS
 62
3
 10
59.748891
 20
-51.390151
 30
0.0
 40
0.131647
  0
LINE
  8
1
  5
4F6
  6
HIDDEN
 62
4
 10
59.227
 20
-50.9511
 30
0.0
 11
59.227
 21
-50.6453
 31
0.0
  0
LINE
  8
1
  5
4F8
  6
HIDDEN
 62
4
 10
59.227
 20
-53.5271
 30
0.0
 11
59.227
 21
-53.0888
 31
0.0
  0
LINE
  8
1
  5
4FA
  6
HIDDEN
 62
4
 10
59.227
 20
-52.2192
 30
0.0
 11
59.227
 21
-51.8207
 31
0.0
  0
LINE
  8
1
  5
4FC
  6
HIDDEN
 62
4
 10
59.227
 20
-50.6453
 30
0.0
 11
58.727
 21
-50.6453
 31
0.0
  0
LINE
  8
1
  5
4FE
  6
HIDDEN
 62
4
 10
59.227
 20
-53.5271
 30
0.0
 11
58.727
 21
-53.5271
 31
0.0
  0
LINE
  8
1
  5
500
  6
CONTINUOUS
 62
3
 10
58.727
 20
-53.9311
 30
0.0
 11
58.727
 21
-50.2649
 31
0.0
  0
LINE
  8
1
  5
502
  6
HIDDEN
 62
4
 10
61.0208
 20
-50.6453
 30
0.0
 11
61.5209
 21
-50.6453
 31
0.0
  0
LINE
  8
1
  5
504
  6
HIDDEN
 62
4
 10
59.1418
 20
-53.5271
 30
0.0
 11
58.852
 21
-53.5271
 31
0.0
  0
LINE
  8
1
  5
506
  6
HIDDEN
 62
4
 10
61.0208
 20
-53.5271
 30
0.0
 11
61.5209
 21
-53.5271
 31
0.0
  0
LINE
  8
1
  5
508
  6
HIDDEN
 62
4
 10
61.0208
 20
-50.6453
 30
0.0
 11
61.0208
 21
-50.9511
 31
0.0
  0
LINE
  8
1
  5
50A
  6
HIDDEN
 62
4
 10
61.0208
 20
-51.8207
 30
0.0
 11
61.0208
 21
-52.2192
 31
0.0
  0
LINE
  8
1
  5
50C
  6
HIDDEN
 62
4
 10
61.0208
 20
-53.0888
 30
0.0
 11
61.0208
 21
-53.5271
 31
0.0
  0
LINE
  8
1
  5
50E
  6
CONTINUOUS
 62
3
 10
61.5209
 20
-50.6385
 30
0.0
 11
61.5209
 21
-53.5574
 31
0.0
  0
LINE
  8
2
  5
510
  6
CONTINUOUS
 62
3
 10
61.2489
 20
-50.9511
 30
0.0
 11
59.8693
 21
-50.9511
 31
0.0
  0
LINE
  8
2
  5
512
  6
CONTINUOUS
 62
3
 10
59.6285
 20
-50.9511
 30
0.0
 11
58.9989
 21
-50.9511
 31
0.0
  0
CIRCLE
  8
2
  5
514
  6
CONTINUOUS
 62
3
 10
59.127448
 20
-52.915642
 30
0.0
 40
0.067957
  0
CIRCLE
  8
2
  5
516
  6
CONTINUOUS
 62
3
 10
61.126605
 20
-52.915642
 30
0.0
 40
0.067957
  0
CIRCLE
  8
2
  5
518
  6
CONTINUOUS
 62
3
 10
61.126605
 20
-52.400947
 30
0.0
 40
0.067957
  0
CIRCLE
  8
2
  5
51A
  6
CONTINUOUS
 62
3
 10
59.127448
 20
-52.400947
 30
0.0
 40
0.067957
  0
ARC
  8
2
  5
51C
  6
CONTINUOUS
 62
3
 10
59.985307
 20
-52.362243
 30
0.0
 40
0.100003
 50
186.1442527778
 51
231.6811277778
  0
ARC
  8
2
  5
51E
  6
CONTINUOUS
 62
3
 10
59.512475
 20
-52.362243
 30
0.0
 40
0.100003
 50
308.3188722222
 51
353.8557472222
  0
CIRCLE
  8
2
  5
520
  6
CONTINUOUS
 62
3
 10
59.748891
 20
-52.009198
 30
0.0
 40
0.033974
  0
CIRCLE
  8
2
  5
522
  6
CONTINUOUS
 62
3
 10
59.748891
 20
-52.163737
 30
0.0
 40
0.033974
  0
CIRCLE
  8
2
  5
524
  6
CONTINUOUS
 62
3
 10
59.748891
 20
-52.322285
 30
0.0
 40
0.033974
  0
TEXT
  8
2
  5
526
  6
CONTINUOUS
 62
3
 10
60.7769
 20
-52.8137
 30
0.0
  1
S-148
 40
0.0815
 50
90.0
 41
1.0
  7
STANDARD
 72
4
 11
60.7361
 21
-52.6472
 31
0.0
  0
TEXT
  8
2
  5
528
  6
CONTINUOUS
 62
3
 10
60.5689
 20
-52.8738
 30
0.0
  1
FUTABA
 40
0.0815
 50
90.0
 41
1.0
  7
STANDARD
 72
4
 11
60.5281
 21
-52.6464
 31
0.0
  0
LINE
  8
2
  5
52A
  6
CONTINUOUS
 62
3
 10
60.8614
 20
-52.2681
 30
0.0
 11
60.3922
 21
-52.2681
 31
0.0
  0
LINE
  8
2
  5
52C
  6
CONTINUOUS
 62
3
 10
60.8614
 20
-53.0223
 30
0.0
 11
60.8614
 21
-52.2681
 31
0.0
  0
LINE
  8
2
  5
52E
  6
CONTINUOUS
 62
3
 10
60.3922
 20
-53.0223
 30
0.0
 11
60.8614
 21
-53.0223
 31
0.0
  0
LINE
  8
2
  5
530
  6
CONTINUOUS
 62
3
 10
60.3922
 20
-52.2681
 30
0.0
 11
60.3922
 21
-53.0223
 31
0.0
  0
LINE
  8
2
  5
532
  6
CONTINUOUS
 62
3
 10
58.9989
 20
-53.0888
 30
0.0
 11
61.2489
 21
-53.0888
 31
0.0
  0
LINE
  8
2
  5
534
  6
CONTINUOUS
 62
3
 10
59.6511
 20
-52.0092
 30
0.0
 11
59.6118
 21
-52.373
 31
0.0
  0
LINE
  8
2
  5
536
  6
CONTINUOUS
 62
3
 10
59.8467
 20
-52.0092
 30
0.0
 11
59.8859
 21
-52.373
 31
0.0
  0
ARC
  8
2
  5
538
  6
CONTINUOUS
 62
3
 10
59.748891
 20
-52.009198
 30
0.0
 40
0.097829
 50
360.0
 51
180.0
  0
LINE
  8
2
  5
53A
  6
CONTINUOUS
 62
3
 10
60.999
 20
-52.2192
 30
0.0
 11
60.999
 21
-53.0888
 31
0.0
  0
LINE
  8
2
  5
53C
  6
CONTINUOUS
 62
3
 10
59.2489
 20
-52.2192
 30
0.0
 11
59.2489
 21
-53.0888
 31
0.0
  0
LINE
  8
2
  5
53E
  6
CONTINUOUS
 62
3
 10
61.2489
 20
-53.0888
 30
0.0
 11
61.2489
 21
-52.2192
 31
0.0
  0
LINE
  8
2
  5
540
  6
CONTINUOUS
 62
3
 10
58.9989
 20
-52.2192
 30
0.0
 11
58.9989
 21
-53.0888
 31
0.0
  0
ARC
  8
2
  5
542
  6
CONTINUOUS
 62
3
 10
59.748891
 20
-52.658294
 30
0.0
 40
0.28129
 50
128.318875
 51
231.6811277778
  0
ARC
  8
2
  5
544
  6
CONTINUOUS
 62
3
 10
59.748891
 20
-52.658294
 30
0.0
 40
0.28129
 50
231.6822055556
 51
51.6811277778
  0
LINE
  8
2
  5
546
  6
CONTINUOUS
 62
3
 10
59.7489
 20
-52.6583
 30
0.0
 11
59.7489
 21
-52.7259
 31
0.0
  0
LINE
  8
2
  5
548
  6
CONTINUOUS
 62
3
 10
59.7489
 20
-52.6583
 30
0.0
 11
59.8164
 21
-52.6583
 31
0.0
  0
LINE
  8
2
  5
54A
  6
CONTINUOUS
 62
3
 10
59.7489
 20
-52.6583
 30
0.0
 11
59.7489
 21
-52.5907
 31
0.0
  0
LINE
  8
2
  5
54C
  6
CONTINUOUS
 62
3
 10
59.7489
 20
-52.6583
 30
0.0
 11
59.6813
 21
-52.6583
 31
0.0
  0
CIRCLE
  8
2
  5
54E
  6
CONTINUOUS
 62
3
 10
59.748891
 20
-52.658294
 30
0.0
 40
0.131647
  0
LINE
  8
2
  5
550
  6
CONTINUOUS
 62
3
 10
61.2489
 20
-52.2192
 30
0.0
 11
59.8693
 21
-52.2192
 31
0.0
  0
LINE
  8
2
  5
552
  6
CONTINUOUS
 62
3
 10
59.6285
 20
-52.2192
 30
0.0
 11
58.9989
 21
-52.2192
 31
0.0
  0
LINE
  8
6
  5
554
  6
CENTER
 62
1
 10
65.0437
 20
-53.8581
 30
0.0
 11
70.9542
 21
-53.8581
 31
0.0
  0
CIRCLE
  8
6
  5
556
  6
CONTINUOUS
 62
3
 10
68.031706
 20
-53.858108
 30
0.0
 40
1.250043
  0
CIRCLE
  8
6
  5
558
  6
CONTINUOUS
 62
3
 10
68.031706
 20
-53.858108
 30
0.0
 40
0.87503
  0
CIRCLE
  8
6
  5
55A
  6
CONTINUOUS
 62
3
 10
65.805231
 20
-46.382923
 30
0.0
 40
1.250043
  0
CIRCLE
  8
6
  5
55C
  6
CONTINUOUS
 62
3
 10
65.805231
 20
-46.382923
 30
0.0
 40
0.87503
  0
LINE
  8
6
  5
55E
  6
CONTINUOUS
 62
3
 10
64.4614
 20
-46.383
 30
0.0
 11
64.4614
 21
-48.6557
 31
0.0
  0
LINE
  8
6
  5
560
  6
CONTINUOUS
 62
3
 10
67.149
 20
-46.383
 30
0.0
 11
67.149
 21
-48.6557
 31
0.0
  0
LINE
  8
4
  5
562
  6
HIDDEN
 62
4
 10
63.8898
 20
-49.4165
 30
0.0
 11
67.7207
 21
-49.4165
 31
0.0
  0
ARC
  8
6
  5
564
  6
CONTINUOUS
 62
3
 10
65.805231
 20
-46.382923
 30
0.0
 40
1.343796
 50
0.0
 51
180.0
  0
LINE
  8
6
  5
566
  6
HIDDEN
 62
4
 10
66.5241
 20
-47.4056
 30
0.0
 11
66.5241
 21
-49.4165
 31
0.0
  0
LINE
  8
6
  5
568
  6
HIDDEN
 62
4
 10
65.0864
 20
-47.4056
 30
0.0
 11
65.0864
 21
-49.4165
 31
0.0
  0
LINE
  8
6
  5
56A
  6
CONTINUOUS
 62
3
 10
65.4613
 20
-49.6557
 30
0.0
 11
66.1491
 21
-49.6557
 31
0.0
  0
ARC
  8
6
  5
56C
  6
CONTINUOUS
 62
3
 10
65.461419
 20
-48.6557
 30
0.0
 40
1.000034
 50
180.0
 51
270.0
  0
ARC
  8
6
  5
56E
  6
CONTINUOUS
 62
3
 10
66.149042
 20
-48.6557
 30
0.0
 40
1.000034
 50
270.0
 51
360.0
  0
LINE
  8
5
  5
570
  6
CONTINUOUS
 62
3
 10
66.3053
 20
-48.0484
 30
0.0
 11
66.3053
 21
-48.8227
 31
0.0
  0
LINE
  8
5
  5
572
  6
CONTINUOUS
 62
3
 10
65.3052
 20
-48.0484
 30
0.0
 11
65.3052
 21
-48.8227
 31
0.0
  0
LINE
  8
6
  5
574
  6
CONTINUOUS
 62
3
 10
65.5553
 20
-47.7984
 30
0.0
 11
66.0552
 21
-47.7984
 31
0.0
  0
LINE
  8
6
  5
576
  6
CONTINUOUS
 62
3
 10
65.5553
 20
-49.0728
 30
0.0
 11
66.0552
 21
-49.0728
 31
0.0
  0
ARC
  8
6
  5
578
  6
CONTINUOUS
 62
3
 10
66.055239
 20
-48.048379
 30
0.0
 40
0.250009
 50
0.0
 51
90.0
  0
ARC
  8
6
  5
57A
  6
CONTINUOUS
 62
3
 10
66.055239
 20
-48.822806
 30
0.0
 40
0.250009
 50
270.0
 51
0.0
  0
ARC
  8
6
  5
57C
  6
CONTINUOUS
 62
3
 10
65.555222
 20
-48.048379
 30
0.0
 40
0.250009
 50
90.0
 51
180.0
  0
ARC
  8
6
  5
57E
  6
CONTINUOUS
 62
3
 10
65.555222
 20
-48.822806
 30
0.0
 40
0.250009
 50
180.0
 51
270.0
  0
LINE
  8
4
  5
580
  6
HIDDEN
 62
4
 10
64.0216
 20
-49.6665
 30
0.0
 11
67.589
 21
-49.6665
 31
0.0
  0
CIRCLE
  8
6
  5
582
  6
CONTINUOUS
 62
3
 10
68.031706
 20
-53.858108
 30
0.0
 40
1.312545
  0
LINE
  8
2
  5
584
  6
CONTINUOUS
 62
3
 10
19.2059
 20
-56.8418
 30
0.0
 11
19.081
 21
-56.858
 31
0.0
  0
LINE
  8
2
  5
586
  6
CONTINUOUS
 62
3
 10
-2.0291
 20
-59.5824
 30
0.0
 11
-2.1542
 21
-59.5985
 31
0.0
  0
LINE
  8
1
  5
588
  6
CONTINUOUS
 62
3
 10
19.081
 20
-71.7987
 30
0.0
 11
-6.1544
 21
-68.5421
 31
0.0
  0
LINE
  8
2
  5
58A
  6
CONTINUOUS
 62
3
 10
19.2059
 20
-69.5459
 30
0.0
 11
19.081
 21
-69.5299
 31
0.0
  0
LINE
  8
2
  5
58C
  6
CONTINUOUS
 62
3
 10
17.9715
 20
-57.0012
 30
0.0
 11
17.8465
 21
-57.0173
 31
0.0
  0
LINE
  8
2
  5
58E
  6
CONTINUOUS
 62
3
 10
13.9714
 20
-57.5174
 30
0.0
 11
13.8464
 21
-57.5335
 31
0.0
  0
LINE
  8
2
  5
590
  6
CONTINUOUS
 62
3
 10
9.9713
 20
-58.0335
 30
0.0
 11
9.8463
 21
-58.0497
 31
0.0
  0
LINE
  8
2
  5
592
  6
CONTINUOUS
 62
3
 10
5.9711
 20
-58.5498
 30
0.0
 11
5.8461
 21
-58.566
 31
0.0
  0
LINE
  8
2
  5
594
  6
CONTINUOUS
 62
3
 10
1.971
 20
-59.0661
 30
0.0
 11
1.846
 21
-59.0822
 31
0.0
  0
LINE
  8
2
  5
596
  6
CONTINUOUS
 62
3
 10
1.846
 20
-59.3344
 30
0.0
 11
-2.0291
 21
-59.8345
 31
0.0
  0
LINE
  8
2
  5
598
  6
CONTINUOUS
 62
3
 10
5.8461
 20
-58.8181
 30
0.0
 11
1.971
 21
-59.3182
 31
0.0
  0
LINE
  8
2
  5
59A
  6
CONTINUOUS
 62
3
 10
9.8463
 20
-58.3018
 30
0.0
 11
5.9711
 21
-58.8019
 31
0.0
  0
LINE
  8
2
  5
59C
  6
CONTINUOUS
 62
3
 10
13.8464
 20
-57.7857
 30
0.0
 11
9.9713
 21
-58.2857
 31
0.0
  0
LINE
  8
2
  5
59E
  6
CONTINUOUS
 62
3
 10
19.081
 20
-57.1101
 30
0.0
 11
17.9715
 21
-57.2532
 31
0.0
  0
LINE
  8
2
  5
5A0
  6
CONTINUOUS
 62
3
 10
17.8465
 20
-57.2694
 30
0.0
 11
13.9714
 21
-57.7696
 31
0.0
  0
LINE
  8
2
  5
5A2
  6
CONTINUOUS
 62
3
 10
1.971
 20
-67.3218
 30
0.0
 11
1.846
 21
-67.3057
 31
0.0
  0
LINE
  8
2
  5
5A4
  6
CONTINUOUS
 62
3
 10
5.9711
 20
-67.8379
 30
0.0
 11
5.8461
 21
-67.8218
 31
0.0
  0
LINE
  8
2
  5
5A6
  6
CONTINUOUS
 62
3
 10
5.8461
 20
-67.6958
 30
0.0
 11
1.971
 21
-67.1957
 31
0.0
  0
LINE
  8
2
  5
5A8
  6
CONTINUOUS
 62
3
 10
1.846
 20
-67.1797
 30
0.0
 11
-6.1544
 21
-66.1473
 31
0.0
  0
LINE
  8
2
  5
5AA
  6
CONTINUOUS
 62
3
 10
9.9713
 20
-68.3542
 30
0.0
 11
9.8463
 21
-68.3382
 31
0.0
  0
LINE
  8
2
  5
5AC
  6
CONTINUOUS
 62
3
 10
13.9714
 20
-68.8704
 30
0.0
 11
13.8464
 21
-68.8542
 31
0.0
  0
LINE
  8
2
  5
5AE
  6
CONTINUOUS
 62
3
 10
13.8464
 20
-68.7283
 30
0.0
 11
9.9713
 21
-68.2281
 31
0.0
  0
LINE
  8
2
  5
5B0
  6
CONTINUOUS
 62
3
 10
9.8463
 20
-68.2121
 30
0.0
 11
5.9711
 21
-67.712
 31
0.0
  0
LINE
  8
2
  5
5B2
  6
CONTINUOUS
 62
3
 10
17.9715
 20
-69.3867
 30
0.0
 11
17.8465
 21
-69.3705
 31
0.0
  0
LINE
  8
2
  5
5B4
  6
CONTINUOUS
 62
3
 10
19.081
 20
-69.4038
 30
0.0
 11
17.9715
 21
-69.2606
 31
0.0
  0
LINE
  8
2
  5
5B6
  6
CONTINUOUS
 62
3
 10
17.8465
 20
-69.2446
 30
0.0
 11
13.9714
 21
-68.7444
 31
0.0
  0
LINE
  8
2
  5
5B8
  6
CONTINUOUS
 62
3
 10
-2.0291
 20
-59.5824
 30
0.0
 11
-2.0291
 21
-62.6622
 31
0.0
  0
LINE
  8
2
  5
5BA
  6
CONTINUOUS
 62
3
 10
-2.0291
 20
-63.0377
 30
0.0
 11
-2.0291
 21
-66.6796
 31
0.0
  0
LINE
  8
2
  5
5BC
  6
CONTINUOUS
 62
3
 10
1.846
 20
-59.0822
 30
0.0
 11
1.846
 21
-62.4955
 31
0.0
  0
LINE
  8
2
  5
5BE
  6
CONTINUOUS
 62
3
 10
1.846
 20
-62.8709
 30
0.0
 11
1.846
 21
-67.3057
 31
0.0
  0
LINE
  8
2
  5
5C0
  6
CONTINUOUS
 62
3
 10
5.8461
 20
-58.566
 30
0.0
 11
5.8461
 21
-62.3236
 31
0.0
  0
LINE
  8
2
  5
5C2
  6
CONTINUOUS
 62
3
 10
5.8461
 20
-62.6989
 30
0.0
 11
5.8461
 21
-67.8218
 31
0.0
  0
LINE
  8
2
  5
5C4
  6
CONTINUOUS
 62
3
 10
9.8463
 20
-58.0497
 30
0.0
 11
9.8463
 21
-62.1516
 31
0.0
  0
LINE
  8
2
  5
5C6
  6
CONTINUOUS
 62
3
 10
9.8463
 20
-62.5268
 30
0.0
 11
9.8463
 21
-68.3382
 31
0.0
  0
LINE
  8
2
  5
5C8
  6
CONTINUOUS
 62
3
 10
13.8464
 20
-57.5335
 30
0.0
 11
13.8464
 21
-61.9793
 31
0.0
  0
LINE
  8
2
  5
5CA
  6
CONTINUOUS
 62
3
 10
13.8464
 20
-62.3548
 30
0.0
 11
13.8464
 21
-68.8542
 31
0.0
  0
LINE
  8
2
  5
5CC
  6
CONTINUOUS
 62
3
 10
13.9714
 20
-57.5173
 30
0.0
 11
13.9714
 21
-61.974
 31
0.0
  0
LINE
  8
2
  5
5CE
  6
CONTINUOUS
 62
3
 10
13.9714
 20
-62.3494
 30
0.0
 11
13.9714
 21
-68.8704
 31
0.0
  0
LINE
  8
2
  5
5D0
  6
CONTINUOUS
 62
3
 10
9.9713
 20
-58.0335
 30
0.0
 11
9.9713
 21
-62.1461
 31
0.0
  0
LINE
  8
2
  5
5D2
  6
CONTINUOUS
 62
3
 10
9.9713
 20
-62.5213
 30
0.0
 11
9.9713
 21
-68.3542
 31
0.0
  0
LINE
  8
2
  5
5D4
  6
CONTINUOUS
 62
3
 10
1.971
 20
-59.0661
 30
0.0
 11
1.971
 21
-62.4903
 31
0.0
  0
LINE
  8
2
  5
5D6
  6
CONTINUOUS
 62
3
 10
1.971
 20
-62.8656
 30
0.0
 11
1.971
 21
-67.3218
 31
0.0
  0
LINE
  8
2
  5
5D8
  6
CONTINUOUS
 62
3
 10
5.9711
 20
-58.5498
 30
0.0
 11
5.9711
 21
-62.3182
 31
0.0
  0
LINE
  8
2
  5
5DA
  6
CONTINUOUS
 62
3
 10
5.9711
 20
-62.6934
 30
0.0
 11
5.9711
 21
-67.8379
 31
0.0
  0
LINE
  8
2
  5
5DC
  6
CONTINUOUS
 62
3
 10
17.8465
 20
-57.0173
 30
0.0
 11
17.8465
 21
-61.8073
 31
0.0
  0
LINE
  8
2
  5
5DE
  6
CONTINUOUS
 62
3
 10
17.8465
 20
-62.1826
 30
0.0
 11
17.8465
 21
-69.3705
 31
0.0
  0
LINE
  8
2
  5
5E0
  6
CONTINUOUS
 62
3
 10
17.9715
 20
-57.001
 30
0.0
 11
17.9715
 21
-61.802
 31
0.0
  0
LINE
  8
2
  5
5E2
  6
CONTINUOUS
 62
3
 10
17.9715
 20
-62.1773
 30
0.0
 11
17.9715
 21
-69.3867
 31
0.0
  0
LINE
  8
2
  5
5E4
  6
CONTINUOUS
 62
3
 10
19.081
 20
-56.858
 30
0.0
 11
19.081
 21
-61.7543
 31
0.0
  0
LINE
  8
2
  5
5E6
  6
CONTINUOUS
 62
3
 10
19.081
 20
-62.1296
 30
0.0
 11
19.081
 21
-69.5299
 31
0.0
  0
LINE
  8
2
  5
5E8
  6
CONTINUOUS
 62
3
 10
19.2059
 20
-56.3378
 30
0.0
 11
19.2059
 21
-61.7489
 31
0.0
  0
LINE
  8
2
  5
5EA
  6
CONTINUOUS
 62
3
 10
19.2059
 20
-61.7489
 30
0.0
 11
19.2059
 21
-71.8148
 31
0.0
  0
LINE
  8
1
  5
5EC
  6
CONTINUOUS
 62
3
 10
19.2059
 20
-69.7981
 30
0.0
 11
-6.1544
 21
-66.5254
 31
0.0
  0
LINE
  8
2
  5
5EE
  6
DIVIDE
 62
6
 10
19.2059
 20
-66.7732
 30
0.0
 11
-6.1544
 21
-63.5003
 31
0.0
  0
LINE
  8
2
  5
5F0
  6
DIVIDE
 62
6
 10
19.2059
 20
-61.9992
 30
0.0
 11
-6.1544
 21
-63.0902
 31
0.0
  0
LINE
  8
2
  5
5F2
  6
HIDDEN
 62
4
 10
19.2059
 20
-61.7489
 30
0.0
 11
-6.1544
 21
-62.8397
 31
0.0
  0
LINE
  8
2
  5
5F4
  6
CONTINUOUS
 62
3
 10
19.2059
 20
-62.1241
 30
0.0
 11
-6.1544
 21
-63.2151
 31
0.0
  0
LINE
  8
2
  5
5F6
  6
CONTINUOUS
 62
3
 10
-6.1544
 20
-59.9575
 30
0.0
 11
-6.1544
 21
-68.5421
 31
0.0
  0
LINE
  8
2
  5
5F8
  6
CONTINUOUS
 62
3
 10
-2.1542
 20
-59.8506
 30
0.0
 11
-6.0293
 21
-60.3509
 31
0.0
  0
LINE
  8
2
  5
5FA
  6
CONTINUOUS
 62
3
 10
-6.0293
 20
-60.0976
 30
0.0
 11
-6.1544
 21
-60.1137
 31
0.0
  0
LINE
  8
2
  5
5FC
  6
CONTINUOUS
 62
3
 10
-6.0293
 20
-60.0976
 30
0.0
 11
-6.0293
 21
-62.8345
 31
0.0
  0
LINE
  8
2
  5
5FE
  6
CONTINUOUS
 62
3
 10
-6.0293
 20
-63.2151
 30
0.0
 11
-6.0293
 21
-66.1633
 31
0.0
  0
LINE
  8
2
  5
600
  6
CONTINUOUS
 62
3
 10
-2.1542
 20
-59.5985
 30
0.0
 11
-2.1542
 21
-62.6703
 31
0.0
  0
LINE
  8
2
  5
602
  6
CONTINUOUS
 62
3
 10
-2.1542
 20
-63.0458
 30
0.0
 11
-2.1542
 21
-66.6634
 31
0.0
  0
LINE
  8
1
  5
604
  6
CONTINUOUS
 62
3
 10
20.7364
 20
-56.1403
 30
0.0
 11
19.2059
 21
-56.3378
 31
0.0
  0
LINE
  8
2
  5
606
  6
CONTINUOUS
 62
3
 10
19.3309
 20
-56.8257
 30
0.0
 11
19.2059
 21
-56.8418
 31
0.0
  0
LINE
  8
2
  5
608
  6
CONTINUOUS
 62
3
 10
19.3309
 20
-69.5622
 30
0.0
 11
19.2059
 21
-69.5459
 31
0.0
  0
LINE
  8
2
  5
60A
  6
DIVIDE
 62
6
 10
20.7364
 20
-66.9707
 30
0.0
 11
19.2059
 21
-66.7732
 31
0.0
  0
LINE
  8
2
  5
60C
  6
CONTINUOUS
 62
3
 10
20.6686
 20
-56.6531
 30
0.0
 11
20.5436
 21
-56.6691
 31
0.0
  0
LINE
  8
2
  5
60E
  6
CONTINUOUS
 62
3
 10
20.5436
 20
-56.9214
 30
0.0
 11
19.3309
 21
-57.0779
 31
0.0
  0
LINE
  8
2
  5
610
  6
CONTINUOUS
 62
3
 10
20.5436
 20
-69.5925
 30
0.0
 11
19.3309
 21
-69.436
 31
0.0
  0
LINE
  8
2
  5
612
  6
CONTINUOUS
 62
3
 10
20.7364
 20
-69.6174
 30
0.0
 11
20.6686
 21
-69.6087
 31
0.0
  0
LINE
  8
2
  5
614
  6
CONTINUOUS
 62
3
 10
20.6686
 20
-69.7345
 30
0.0
 11
20.5436
 21
-69.7185
 31
0.0
  0
LINE
  8
2
  5
616
  6
CONTINUOUS
 62
3
 10
20.7364
 20
-56.8964
 30
0.0
 11
20.6686
 21
-56.9052
 31
0.0
  0
LINE
  8
2
  5
618
  6
CONTINUOUS
 62
3
 10
20.7364
 20
-69.9957
 30
0.0
 11
19.2059
 21
-69.7982
 31
0.0
  0
LINE
  8
2
  5
61A
  6
CONTINUOUS
 62
3
 10
19.2059
 20
-56.3378
 30
0.0
 11
19.2059
 21
-61.7489
 31
0.0
  0
LINE
  8
2
  5
61C
  6
CONTINUOUS
 62
3
 10
19.2059
 20
-61.7489
 30
0.0
 11
19.2059
 21
-69.7982
 31
0.0
  0
LINE
  8
2
  5
61E
  6
CONTINUOUS
 62
3
 10
19.3309
 20
-56.8257
 30
0.0
 11
19.3309
 21
-69.5622
 31
0.0
  0
LINE
  8
2
  5
620
  6
CONTINUOUS
 62
3
 10
20.5436
 20
-56.6691
 30
0.0
 11
20.5436
 21
-69.7185
 31
0.0
  0
LINE
  8
2
  5
622
  6
CONTINUOUS
 62
3
 10
20.6686
 20
-56.6531
 30
0.0
 11
20.6686
 21
-69.7345
 31
0.0
  0
LINE
  8
1
  5
624
  6
CONTINUOUS
 62
3
 10
20.7364
 20
-72.0124
 30
0.0
 11
19.081
 21
-71.7987
 31
0.0
  0
LINE
  8
1
  5
626
  6
HIDDEN
 62
30
 10
20.7364
 20
-61.7489
 30
0.0
 11
19.2059
 21
-61.7489
 31
0.0
  0
LINE
  8
1
  5
628
  6
HIDDEN
 62
30
 10
20.7364
 20
-62.1239
 30
0.0
 11
19.2059
 21
-62.1239
 31
0.0
  0
LINE
  8
1
  5
62A
  6
DIVIDE
 62
6
 10
19.2059
 20
-61.9992
 30
0.0
 11
20.7364
 21
-61.9992
 31
0.0
  0
LINE
  8
1
  5
62C
  6
HIDDEN
 62
30
 10
20.7364
 20
-58.1879
 30
0.0
 11
19.2059
 21
-58.1879
 31
0.0
  0
LINE
  8
1
  5
62E
  6
HIDDEN
 62
30
 10
20.7364
 20
-57.8129
 30
0.0
 11
19.2059
 21
-57.8129
 31
0.0
  0
LINE
  8
0
  5
630
  6
HIDDEN
 62
253
 10
13.8464
 20
-61.3459
 30
0.0
 11
20.7364
 21
-61.3459
 31
0.0
  0
LINE
  8
0
  5
632
  6
HIDDEN
 62
253
 10
13.8464
 20
-60.7208
 30
0.0
 11
20.7364
 21
-60.7208
 31
0.0
  0
LINE
  8
7
  5
634
  6
HIDDEN
 62
46
 10
13.8464
 20
-60.6895
 30
0.0
 11
20.7364
 21
-60.6895
 31
0.0
  0
ARC
  8
10
  5
636
  6
CONTINUOUS
 62
3
 10
-1.042071
 20
-43.339371
 30
0.0
 40
25.715976
 50
240.5567833333
 51
258.5335361111
  0
ARC
  8
10
  5
638
  6
CONTINUOUS
 62
3
 10
-13.33893
 20
-65.124345
 30
0.0
 40
0.700024
 50
144.4469944444
 51
240.5567833333
  0
LINE
  8
1
  5
63A
  6
CONTINUOUS
 62
3
 10
19.2059
 20
-56.3378
 30
0.0
 11
-2.8831
 21
-59.1885
 31
0.0
  0
ARC
  8
10
  5
63C
  6
CONTINUOUS
 62
3
 10
-0.043853
 20
-78.607687
 30
0.0
 40
19.625688
 50
98.3183166667
 51
134.9468277778
  0
LINE
  8
10
  5
63E
  6
CONTINUOUS
 62
2
 10
-10.8382
 20
-65.9876
 30
0.0
 11
-8.9113
 21
-66.6528
 31
0.0
  0
LINE
  8
10
  5
640
  6
CONTINUOUS
 62
2
 10
-8.9113
 20
-66.6528
 30
0.0
 11
-7.2632
 21
-67.2217
 31
0.0
  0
LINE
  8
10
  5
642
  6
CONTINUOUS
 62
2
 10
-7.309
 20
-61.4924
 30
0.0
 11
-8.9113
 21
-62.3659
 31
0.0
  0
LINE
  8
10
  5
644
  6
CONTINUOUS
 62
2
 10
-8.9113
 20
-62.3659
 30
0.0
 11
-10.8841
 21
-63.4413
 31
0.0
  0
LINE
  8
2
  5
646
  6
CONTINUOUS
 62
2
 10
-6.2793
 20
-60.3983
 30
0.0
 11
-6.2793
 21
-68.2644
 31
0.0
  0
LINE
  8
10
  5
648
  6
CONTINUOUS
 62
2
 10
-6.2793
 20
-60.3983
 30
0.0
 11
-6.1544
 21
-60.3459
 31
0.0
  0
LINE
  8
10
  5
64A
  6
CONTINUOUS
 62
2
 10
-6.2793
 20
-68.2644
 30
0.0
 11
-6.1544
 21
-68.3019
 31
0.0
  0
LINE
  8
2
  5
64C
  6
CONTINUOUS
 62
3
 10
20.7364
 20
-59.9213
 30
0.0
 11
19.2059
 21
-60.1188
 31
0.0
  0
LINE
  8
2
  5
64E
  6
CONTINUOUS
 62
3
 10
20.7364
 20
-66.5922
 30
0.0
 11
19.2059
 21
-66.3947
 31
0.0
  0
LINE
  8
2
  5
650
  6
CONTINUOUS
 62
3
 10
20.7364
 20
-63.5673
 30
0.0
 11
19.2059
 21
-63.3698
 31
0.0
  0
LINE
  8
2
  5
652
  6
CONTINUOUS
 62
3
 10
20.7364
 20
-62.9463
 30
0.0
 11
19.2059
 21
-63.1438
 31
0.0
  0
LINE
  8
12
  5
654
  6
HIDDEN
 62
4
 10
19.2059
 20
-62.4216
 30
0.0
 11
20.5437
 21
-62.4216
 31
0.0
  0
LINE
  8
12
  5
656
  6
HIDDEN
 62
4
 10
19.2059
 20
-62.9218
 30
0.0
 11
20.5437
 21
-62.9218
 31
0.0
  0
LINE
  8
12
  5
658
  6
HIDDEN
 62
4
 10
19.6145
 20
-62.5931
 30
0.0
 11
19.2008
 21
-62.5931
 31
0.0
  0
LINE
  8
12
  5
65A
  6
HIDDEN
 62
4
 10
19.6145
 20
-62.7246
 30
0.0
 11
19.2007
 21
-62.7246
 31
0.0
  0
ARC
  8
12
  5
65C
  6
HIDDEN
 62
4
 10
19.562868
 20
-62.910322
 30
0.0
 40
0.321436
 50
51.4932694444
 51
80.7289694444
  0
ARC
  8
12
  5
65E
  6
HIDDEN
 62
4
 10
19.562868
 20
-62.407253
 30
0.0
 40
0.321436
 50
279.2710305556
 51
308.5067305556
  0
LINE
  8
12
  5
660
  6
HIDDEN
 62
4
 10
19.081
 20
-62.3086
 30
0.0
 11
19.2059
 21
-62.3086
 31
0.0
  0
LINE
  8
12
  5
662
  6
HIDDEN
 62
4
 10
19.081
 20
-63.0214
 30
0.0
 11
19.2059
 21
-63.0214
 31
0.0
  0
LINE
  8
12
  5
664
  6
HIDDEN
 62
4
 10
18.2336
 20
-62.6217
 30
0.0
 11
18.9515
 21
-62.6217
 31
0.0
  0
LINE
  8
12
  5
666
  6
HIDDEN
 62
4
 10
18.2336
 20
-62.6963
 30
0.0
 11
18.9515
 21
-62.6963
 31
0.0
  0
ARC
  8
12
  5
668
  6
HIDDEN
 62
4
 10
18.95163
 20
-62.658988
 30
0.0
 40
0.037301
 50
270.0
 51
90.0
  0
ARC
  8
12
  5
66A
  6
HIDDEN
 62
4
 10
19.009132
 20
-62.658788
 30
0.0
 40
0.202607
 50
190.6666
 51
341.0478805556
  0
ARC
  8
12
  5
66C
  6
HIDDEN
 62
4
 10
19.009132
 20
-62.658788
 30
0.0
 40
0.202607
 50
18.9222194444
 51
169.4484888889
  0
ARC
  8
12
  5
66E
  6
HIDDEN
 62
4
 10
19.009132
 20
-62.658788
 30
0.0
 40
0.113204
 50
199.3460027778
 51
160.8684305556
  0
LINE
  8
12
  5
670
  6
HIDDEN
 62
4
 10
16.7427
 20
-62.5924
 30
0.0
 11
16.4457
 21
-62.5924
 31
0.0
  0
LINE
  8
12
  5
672
  6
HIDDEN
 62
4
 10
16.7427
 20
-62.6644
 30
0.0
 11
16.4457
 21
-62.6644
 31
0.0
  0
ARC
  8
12
  5
674
  6
HIDDEN
 62
4
 10
16.453995
 20
-62.628437
 30
0.0
 40
0.036983
 50
102.8901055556
 51
282.8901055556
  0
LINE
  8
12
  5
676
  6
HIDDEN
 62
4
 10
15.7598
 20
-62.5652
 30
0.0
 11
16.1736
 21
-62.5652
 31
0.0
  0
LINE
  8
12
  5
678
  6
HIDDEN
 62
4
 10
15.7598
 20
-62.6967
 30
0.0
 11
16.1737
 21
-62.6967
 31
0.0
  0
ARC
  8
12
  5
67A
  6
HIDDEN
 62
4
 10
15.811606
 20
-62.882422
 30
0.0
 40
0.321436
 50
99.2710305556
 51
128.5067305556
  0
ARC
  8
12
  5
67C
  6
HIDDEN
 62
4
 10
15.811606
 20
-62.379352
 30
0.0
 40
0.321436
 50
231.4932694444
 51
260.7289694444
  0
ARC
  8
12
  5
67E
  6
HIDDEN
 62
4
 10
16.365342
 20
-62.630887
 30
0.0
 40
0.202607
 50
198.9521194444
 51
349.3334
  0
ARC
  8
12
  5
680
  6
HIDDEN
 62
4
 10
16.365342
 20
-62.630887
 30
0.0
 40
0.202607
 50
10.5515111111
 51
161.0777805556
  0
ARC
  8
12
  5
682
  6
HIDDEN
 62
4
 10
16.365342
 20
-62.630887
 30
0.0
 40
0.113204
 50
19.1315694444
 51
340.6539972222
  0
LINE
  8
12
  5
684
  6
HIDDEN
 62
4
 10
16.1026
 20
-62.2575
 30
0.0
 11
16.1026
 21
-62.88
 31
0.0
  0
LINE
  8
12
  5
686
  6
HIDDEN
 62
4
 10
16.1026
 20
-62.88
 30
0.0
 11
15.2576
 21
-62.88
 31
0.0
  0
LINE
  8
12
  5
688
  6
HIDDEN
 62
4
 10
15.2576
 20
-62.88
 30
0.0
 11
15.2576
 21
-62.294
 31
0.0
  0
LINE
  8
12
  5
68A
  6
HIDDEN
 62
4
 10
16.7427
 20
-62.503
 30
0.0
 11
16.7427
 21
-62.7946
 31
0.0
  0
LINE
  8
12
  5
68C
  6
HIDDEN
 62
4
 10
16.7427
 20
-62.7946
 30
0.0
 11
18.2336
 21
-62.7946
 31
0.0
  0
LINE
  8
12
  5
68E
  6
HIDDEN
 62
4
 10
18.2336
 20
-62.7946
 30
0.0
 11
18.2336
 21
-62.503
 31
0.0
  0
LINE
  8
12
  5
690
  6
HIDDEN
 62
4
 10
18.2336
 20
-62.503
 30
0.0
 11
16.7427
 21
-62.503
 31
0.0
  0
LINE
  8
12
  5
692
  6
HIDDEN
 62
4
 10
18.1503
 20
-62.7946
 30
0.0
 11
18.1503
 21
-62.503
 31
0.0
  0
LINE
  8
12
  5
694
  6
HIDDEN
 62
4
 10
18.0431
 20
-62.7946
 30
0.0
 11
18.0431
 21
-62.503
 31
0.0
  0
LINE
  8
12
  5
696
  6
HIDDEN
 62
4
 10
17.9359
 20
-62.7946
 30
0.0
 11
17.9359
 21
-62.503
 31
0.0
  0
LINE
  8
12
  5
698
  6
HIDDEN
 62
4
 10
17.8051
 20
-62.7946
 30
0.0
 11
17.8051
 21
-62.503
 31
0.0
  0
LINE
  8
12
  5
69A
  6
HIDDEN
 62
4
 10
17.6741
 20
-62.7946
 30
0.0
 11
17.6741
 21
-62.503
 31
0.0
  0
LINE
  8
12
  5
69C
  6
HIDDEN
 62
4
 10
17.567
 20
-62.7946
 30
0.0
 11
17.567
 21
-62.503
 31
0.0
  0
LINE
  8
12
  5
69E
  6
HIDDEN
 62
4
 10
17.4242
 20
-62.7946
 30
0.0
 11
17.4242
 21
-62.503
 31
0.0
  0
LINE
  8
12
  5
6A0
  6
HIDDEN
 62
4
 10
17.3289
 20
-62.7946
 30
0.0
 11
17.3289
 21
-62.503
 31
0.0
  0
LINE
  8
12
  5
6A2
  6
HIDDEN
 62
4
 10
17.2336
 20
-62.7946
 30
0.0
 11
17.2336
 21
-62.503
 31
0.0
  0
LINE
  8
12
  5
6A4
  6
HIDDEN
 62
4
 10
17.1504
 20
-62.7946
 30
0.0
 11
17.1504
 21
-62.503
 31
0.0
  0
LINE
  8
12
  5
6A6
  6
HIDDEN
 62
4
 10
17.0551
 20
-62.7946
 30
0.0
 11
17.0551
 21
-62.503
 31
0.0
  0
LINE
  8
12
  5
6A8
  6
HIDDEN
 62
4
 10
16.9479
 20
-62.7946
 30
0.0
 11
16.9479
 21
-62.503
 31
0.0
  0
LINE
  8
12
  5
6AA
  6
HIDDEN
 62
4
 10
16.8289
 20
-62.7946
 30
0.0
 11
16.8289
 21
-62.503
 31
0.0
  0
LINE
  8
12
  5
6AC
  6
CENTER
 62
1
 10
-14.0389
 20
-65.1257
 30
0.0
 11
20.7364
 21
-65.1257
 31
0.0
  0
LINE
  8
12
  5
6AE
  6
CONTINUOUS
 62
2
 10
-6.8652
 20
-61.7558
 30
0.0
 11
-6.8652
 21
-66.9381
 31
0.0
  0
ARC
  8
12
  5
6B0
  6
CONTINUOUS
 62
2
 10
-7.165296
 20
-66.938064
 30
0.0
 40
0.30001
 50
250.9633277778
 51
360.0
  0
ARC
  8
12
  5
6B2
  6
CONTINUOUS
 62
2
 10
-7.165296
 20
-61.755846
 30
0.0
 40
0.30001
 50
0.0
 51
118.6031861111
  0
ARC
  8
12
  5
6B4
  6
CONTINUOUS
 62
2
 10
-10.740417
 20
-65.704133
 30
0.0
 40
0.30001
 50
180.0
 51
250.9672027778
  0
ARC
  8
12
  5
6B6
  6
CONTINUOUS
 62
2
 10
-10.740417
 20
-63.704678
 30
0.0
 40
0.30001
 50
118.5921638889
 51
180.0
  0
LINE
  8
12
  5
6B8
  6
CONTINUOUS
 62
2
 10
-11.5405
 20
-65.1882
 30
0.0
 11
-11.0405
 21
-65.1882
 31
0.0
  0
LINE
  8
12
  5
6BA
  6
CONTINUOUS
 62
2
 10
-11.5405
 20
-65.0632
 30
0.0
 11
-11.0405
 21
-65.0632
 31
0.0
  0
LINE
  8
12
  5
6BC
  6
CONTINUOUS
 62
2
 10
-11.5405
 20
-65.0632
 30
0.0
 11
-11.5405
 21
-65.1882
 31
0.0
  0
LINE
  8
12
  5
6BE
  6
CONTINUOUS
 62
2
 10
-11.0405
 20
-63.7047
 30
0.0
 11
-11.0405
 21
-65.0632
 31
0.0
  0
LINE
  8
12
  5
6C0
  6
CONTINUOUS
 62
2
 10
-11.0405
 20
-65.1882
 30
0.0
 11
-11.0405
 21
-65.7041
 31
0.0
  0
INSERT
  8
2
  5
6C2
  6
CONTINUOUS
 62
7
  2
ARROWD
 10
20.4165
 20
-61.0049
 30
0.0
 41
5.378417
 42
5.378417
 43
1.0
 50
302.48557
 70
1
 71
1
  0
LINE
  8
1
  5
6C4
  6
CONTINUOUS
 62
253
 10
22.0234
 20
-59.9623
 30
0.0
 11
22.0234
 21
-59.5835
 31
0.0
  0
LINE
  8
12
  5
6C6
  6
CENTER
 62
1
 10
77.8088
 20
-64.7717
 30
0.0
 11
44.564
 21
-64.7717
 31
0.0
  0
LINE
  8
1
  5
6C8
  6
CONTINUOUS
 62
253
 10
80.2952
 20
-38.9213
 30
0.0
 11
-15.3127
 21
-38.9213
 31
0.0
  0
LINE
  8
1
  5
6CA
  6
CONTINUOUS
 62
253
 10
80.2952
 20
-38.9213
 30
0.0
 11
80.2952
 21
-72.9213
 31
0.0
  0
LINE
  8
1
  5
6CC
  6
CONTINUOUS
 62
253
 10
80.2952
 20
-72.9213
 30
0.0
 11
-15.3127
 21
-72.9213
 31
0.0
  0
LINE
  8
1
  5
6CE
  6
CONTINUOUS
 62
253
 10
-15.3127
 20
-38.9213
 30
0.0
 11
-15.3127
 21
-72.9213
 31
0.0
  0
TEXT
  8
1
  5
6D1
  6
CONTINUOUS
 62
3
 10
44.4817
 20
-51.7778
 30
0.0
  1
   2. THE WING CENTER SECTION
 40
0.4113
 41
1.0
  7
STANDARD
 72
4
 11
49.9785
 21
-51.5722
 31
0.0
  0
TEXT
  8
1
  5
6D3
  6
CONTINUOUS
 62
3
 10
45.7769
 20
-52.4356
 30
0.0
  1
  IS BUILT UPSIDE DOWN
 40
0.4113
 41
1.0
  7
STANDARD
 72
4
 11
49.9785
 21
-52.23
 31
0.0
  0
TEXT
  8
1
  5
6D5
  6
CONTINUOUS
 62
3
 10
44.498
 20
-53.0935
 30
0.0
  1
     IN ORDER TO INSTALL THE
 40
0.4113
 41
1.0
  7
STANDARD
 72
4
 11
49.9786
 21
-52.8879
 31
0.0
  0
TEXT
  8
1
  5
6D7
  6
CONTINUOUS
 62
3
 10
44.9966
 20
-53.751
 30
0.0
  1
    ENGINE POD ASSEMBLIES.
 40
0.4113
 41
1.0
  7
STANDARD
 72
4
 11
49.9785
 21
-53.5454
 31
0.0
  0
TEXT
  8
1
  5
6DA
  6
CONTINUOUS
 62
3
 10
43.2293
 20
-49.0835
 30
0.0
  1
      1. ALL WOOD SIZES INDICATED
 40
0.4113
 41
1.0
  7
STANDARD
 72
4
 11
49.4029
 21
-48.8779
 31
0.0
  0
TEXT
  8
1
  5
6DC
  6
CONTINUOUS
 62
3
 10
43.4365
 20
-49.7411
 30
0.0
  1
       ARE FOR THE 93" WINGSPAN
 40
0.4113
 41
1.0
  7
STANDARD
 72
4
 11
49.4029
 21
-49.5355
 31
0.0
  0
TEXT
  8
1
  5
6DE
  6
CONTINUOUS
 62
3
 10
42.1735
 20
-50.3989
 30
0.0
  1
          VERSION OF THIS MODEL ONLY.
 40
0.4113
 41
1.0
  7
STANDARD
 72
4
 11
49.4028
 21
-50.1933
 31
0.0
  0
TEXT
  8
1
  5
6E0
  6
CONTINUOUS
 62
3
 10
49.0902
 20
-47.6623
 30
0.0
  1
NOTES:
 40
0.7002
 41
1.0
  7
STANDARD
 72
4
 11
50.8709
 21
-47.3122
 31
0.0
  0
LINE
  8
1
  5
6E2
  6
CONTINUOUS
 62
3
 10
48.6064
 20
-47.8592
 30
0.0
 11
53.181
 21
-47.8592
 31
0.0
  0
TEXT
  8
0
  5
6E4
  6
CONTINUOUS
 62
1
 10
69.7463
 20
-71.5795
 30
0.0
  1
SHEET 3
 40
1.2337
 41
1.0
 51
15.0
  7
ROMANC
 72
4
 11
74.1805
 21
-70.9627
 31
0.0
  0
ENDSEC
  0
EOF
