  0
SECTION
  2
HEADER
  9
$ACADVER
  1
AC1006
  9
$INSBASE
 10
0.0
 20
0.0
 30
0.0
  9
$EXTMAX
 10
78.6873
 20
-77.8058
  9
$EXTMIN
 10
-15.3127
 20
-111.8058
  9
$LIMMAX
 10
12.0
 20
9.0
  9
$LIMMIN
 10
0.0
 20
0.0
  9
$ORTHOMODE
 70
0
  9
$REGENMODE
 70
1
  9
$FILLMODE
 70
1
  9
$QTEXTMODE
 70
0
  9
$MIRRTEXT
 70
1
  9
$DRAGMODE
 70
2
  9
$LTSCALE
 40
1.0
  9
$OSMODE
 70
0
  9
$ATTMODE
 70
1
  9
$TEXTSIZE
 40
0.2
  9
$TRACEWID
 40
0.05
  9
$TEXTSTYLE
  7
STANDARD
  9
$CLAYER
  8
0
  9
$CELTYPE
  6
CONTINUOUS
  9
$CECOLOR
 62
256
  9
$DIMSCALE
 40
1.0
  9
$DIMASZ
 40
0.18
  9
$DIMEXO
 40
0.0625
  9
$DIMDLI
 40
0.38
  9
$DIMRND
 40
0.0
  9
$DIMDLE
 40
0.0
  9
$DIMEXE
 40
0.18
  9
$DIMTP
 40
0.0
  9
$DIMTM
 40
0.0
  9
$DIMTXT
 40
0.18
  9
$DIMCEN
 40
0.09
  9
$DIMTSZ
 40
0.0
  9
$DIMTOL
 70
0
  9
$DIMLIM
 70
0
  9
$DIMTIH
 70
1
  9
$DIMTOH
 70
1
  9
$DIMSE1
 70
0
  9
$DIMSE2
 70
0
  9
$DIMTAD
 70
0
  9
$DIMZIN
 70
0
  9
$DIMBLK
  1

  9
$DIMASO
 70
1
  9
$DIMSHO
 70
1
  9
$DIMPOST
  1

  9
$DIMAPOST
  1

  9
$DIMALT
 70
0
  9
$DIMALTD
 70
2
  9
$DIMALTF
 40
25.4
  9
$DIMLFAC
 40
1.0
  9
$DIMTOFL
 70
0
  9
$DIMTVP
 40
0.0
  9
$DIMTIX
 70
0
  9
$DIMSOXD
 70
0
  9
$DIMSAH
 70
0
  9
$DIMBLK1
  1

  9
$DIMBLK2
  1

  9
$LUNITS
 70
2
  9
$LUPREC
 70
4
  9
$AXISMODE
 70
0
  9
$AXISUNIT
 10
0.0
 20
0.0
  9
$SKETCHINC
 40
0.1
  9
$FILLETRAD
 40
0.0
  9
$AUNITS
 70
0
  9
$AUPREC
 70
0
  9
$MENU
  1
acad
  9
$ELEVATION
 40
0.0
  9
$THICKNESS
 40
0.0
  9
$LIMCHECK
 70
0
  9
$BLIPMODE
 70
1
  9
$CHAMFERA
 40
0.0
  9
$CHAMFERB
 40
0.0
  9
$SKPOLY
 70
0
  9
$TDCREATE
 40
0.0
  9
$TDUPDATE
 40
0.0
  9
$TDINDWG
 40
0.0
  9
$TDUSRTIMER
 40
0.0
  9
$USRTIMER
 70
1
  9
$ANGBASE
 50
0.0
  9
$ANGDIR
 70
0
  9
$PDMODE
 70
0
  9
$PDSIZE
 40
0.0
  9
$PLINEWID
 40
0.0
  9
$COORDS
 70
0
  9
$SPLFRAME
 70
0
  9
$SPLINETYPE
 70
6
  9
$SPLINESEGS
 70
10
  9
$ATTDIA
 70
0
  9
$ATTREQ
 70
1
  9
$HANDLING
 70
1
  9
$HANDSEED
  5
83C
  9
$SURFTAB1
 70
6
  9
$SURFTAB2
 70
6
  9
$SURFTYPE
 70
6
  9
$SURFU
 70
10
  9
$SURFV
 70
10
  9
$FLATLAND
 70
0
  9
$UCSNAME
  2

  9
$UCSORG
 10
0.0
 20
0.0
 30
0.0
  9
$UCSXDIR
 10
1.0
 20
0.0
 30
0.0
  9
$UCSYDIR
 10
0.0
 20
1.0
 30
0.0
  9
$USERI1
 70
0
  9
$USERI2
 70
0
  9
$USERI3
 70
0
  9
$USERI4
 70
0
  9
$USERI5
 70
0
  9
$USERR1
 40
0.0
  9
$USERR2
 40
0.0
  9
$USERR3
 40
0.0
  9
$USERR4
 40
0.0
  9
$USERR5
 40
0.0
  9
$WORLDVIEW
 70
1
  0
ENDSEC
  0
SECTION
  2
TABLES
  0
TABLE
  2
LTYPE
 70
7
  0
LTYPE
  2
CONTINUOUS
 70
64
  3
Solid line
 72
65
 73
0
 40
0.0
  0
LTYPE
  2
DOT
 70
64
  3
. . . . . . . . . . . . . . . . . . . . . . . . . . . . . . . . .
 72
65
 73
2
 40
0.25
 49
0.0
 49
-0.25
  0
LTYPE
  2
HIDDEN
 70
64
  3
__ __ __ __ __ __ __ __ __ __ __ __ __ __ __ __ __ __ __ __ __ 
 72
65
 73
2
 40
0.375
 49
0.25
 49
-0.125
  0
LTYPE
  2
DASHED
 70
64
  3
__ __ __ __ __ __ __ __ __ __ __ __ __ __ __ __ __ __ __ __ __
 72
65
 73
2
 40
0.75
 49
0.5
 49
-0.25
  0
LTYPE
  2
DASHDOT
 70
64
  3
__ . __ . __ . __ . __ . __ . __ . __ . __ . __ . __ . __ . _
 72
65
 73
4
 40
1.0
 49
0.5
 49
-0.25
 49
0.0
 49
-0.25
  0
LTYPE
  2
DIVIDE
 70
64
  3
____ . . ____ . . ____ . . ____ . . ____ . . ____ . . ____ . .
 72
65
 73
6
 40
1.25
 49
0.5
 49
-0.25
 49
0.0
 49
-0.25
 49
0.0
 49
-0.25
  0
LTYPE
  2
CENTER
 70
64
  3
____ _ ____ _ ____ _ ____ _ ____ _ ____ _ ____ _ ____ _ ____ _
 72
65
 73
4
 40
2.0
 49
1.25
 49
-0.25
 49
0.25
 49
-0.25
  0
ENDTAB
  0
TABLE
  2
LAYER
 70
11
  0
LAYER
  2
0
 70
0
 62
7
  6
CONTINUOUS
  0
LAYER
  2
CONSTRUCTION_CLASS
 70
0
 62
7
  6
CONTINUOUS
  0
LAYER
  2
PATTERN_CLASS
 70
0
 62
7
  6
CONTINUOUS
  0
LAYER
  2
2
 70
0
 62
7
  6
CONTINUOUS
  0
LAYER
  2
1
 70
0
 62
7
  6
CONTINUOUS
  0
LAYER
  2
6
 70
0
 62
7
  6
CONTINUOUS
  0
LAYER
  2
3
 70
0
 62
7
  6
CONTINUOUS
  0
LAYER
  2
4
 70
0
 62
7
  6
CONTINUOUS
  0
LAYER
  2
12
 70
0
 62
7
  6
CONTINUOUS
  0
LAYER
  2
10
 70
0
 62
7
  6
CONTINUOUS
  0
LAYER
  2
0
 70
0
 62
7
  6
CONTINUOUS
  0
ENDTAB
  0
TABLE
  2
STYLE
 70
3
  0
STYLE
  2
STANDARD
 70
0
 40
0.2
 41
1.0
 50
0.0
 71
0
 42
0.2
  3
txt
  4

  0
STYLE
  2
ROMANS
 70
0
 40
0.2
 41
1.0
 50
0.0
 71
0
 42
0.2
  3
ROMANS
  4

  0
STYLE
  2
ROMANC
 70
0
 40
0.2
 41
1.0
 50
0.0
 71
0
 42
0.2
  3
ROMANC
  4

  0
ENDTAB
  0
TABLE
  2
UCS
 70
0
  0
ENDTAB
  0
TABLE
  2
VIEW
 70
0
  0
ENDTAB
  0
TABLE
  2
VPORT
 70
1
  0
VPORT
  2
*ACTIVE
 70
0
 10
0.0
 20
0.0
 11
1.0
 21
1.0
 12
0.0
 22
-3.552714E-015
 13
0.0
 23
0.0
 14
0.0
 24
0.0
 15
0.0
 25
0.0
 16
0.0
 26
0.0
 36
1.0
 17
28.838636
 27
-94.03565
 37
0.0
 40
60.5637
 41
1.496815
 42
50.0
 43
0.0004
 44
0.0
 50
0.0
 51
0.0
 71
0
 72
100
 73
1
 74
0
 75
0
 76
0
 77
0
 78
0
  0
ENDTAB
  0
ENDSEC
  0
SECTION
  2
BLOCKS
  0
ENDSEC
  0
SECTION
  2
ENTITIES
  0
LINE
  8
2
  5
2
  6
CENTER
 62
1
 10
30.1463
 20
-87.7516
 30
0.0
 11
47.7463
 21
-87.7516
 31
0.0
  0
LINE
  8
1
  5
4
  6
CONTINUOUS
 62
2
 10
31.6974
 20
-88.8073
 30
0.0
 11
31.6974
 21
-86.6957
 31
0.0
  0
ARC
  8
1
  5
6
  6
CONTINUOUS
 62
2
 10
38.985449
 20
-148.867226
 30
0.0
 40
63.551465
 50
83.9662027778
 51
92.6907277778
  0
ARC
  8
1
  5
8
  6
CONTINUOUS
 62
2
 10
38.985449
 20
-26.635815
 30
0.0
 40
63.551465
 50
267.3092722222
 51
276.0337972222
  0
LINE
  8
2
  5
A
  6
CONTINUOUS
 62
2
 10
45.6656
 20
-89.8352
 30
0.0
 11
45.6656
 21
-85.6678
 31
0.0
  0
LINE
  8
2
  5
C
  6
CONTINUOUS
 62
2
 10
45.6688
 20
-93.8914
 30
0.0
 11
45.6688
 21
-96.4152
 31
0.0
  0
LINE
  8
6
  5
E
  6
CONTINUOUS
 62
2
 10
31.7017
 20
-94.7786
 30
0.0
 11
36.1271
 21
-96.4152
 31
0.0
  0
LINE
  8
6
  5
10
  6
CONTINUOUS
 62
2
 10
39.416
 20
-93.4921
 30
0.0
 11
39.416
 21
-96.1652
 31
0.0
  0
LINE
  8
2
  5
12
  6
CONTINUOUS
 62
2
 10
39.416
 20
-96.1652
 30
0.0
 11
36.2521
 21
-96.1652
 31
0.0
  0
LINE
  8
2
  5
14
  6
CONTINUOUS
 62
2
 10
45.4189
 20
-96.1652
 30
0.0
 11
42.8799
 21
-96.1652
 31
0.0
  0
LINE
  8
2
  5
16
  6
CONTINUOUS
 62
2
 10
42.6299
 20
-96.1652
 30
0.0
 11
39.666
 21
-96.1652
 31
0.0
  0
ARC
  8
6
  5
18
  6
CONTINUOUS
 62
2
 10
36.482855
 20
-102.817795
 30
0.0
 40
9.353546
 50
92.9465722222
 51
120.7411583333
  0
ARC
  8
6
  5
1A
  6
CONTINUOUS
 62
2
 10
37.338716
 20
-175.171996
 30
0.0
 40
81.706315
 50
84.1483916667
 51
90.937375
  0
ARC
  8
6
  5
1C
  6
CONTINUOUS
 62
2
 10
36.482855
 20
-102.817795
 30
0.0
 40
8.853529
 50
93.1131444444
 51
115.8711805556
  0
ARC
  8
6
  5
1E
  6
CONTINUOUS
 62
2
 10
36.482855
 20
-102.817795
 30
0.0
 40
8.60352
 50
93.2037
 51
114.2504916667
  0
LINE
  8
6
  5
20
  6
CONTINUOUS
 62
2
 10
36.0021
 20
-96.1025
 30
0.0
 11
36.0021
 21
-94.2277
 31
0.0
  0
LINE
  8
6
  5
22
  6
CONTINUOUS
 62
2
 10
36.0021
 20
-93.9773
 30
0.0
 11
36.0021
 21
-93.4766
 31
0.0
  0
LINE
  8
6
  5
24
  6
CONTINUOUS
 62
2
 10
31.9847
 20
-94.6169
 30
0.0
 11
32.6197
 21
-94.8518
 31
0.0
  0
LINE
  8
6
  5
26
  6
CONTINUOUS
 62
2
 10
32.9491
 20
-94.9734
 30
0.0
 11
36.0021
 21
-96.1025
 31
0.0
  0
ARC
  8
6
  5
28
  6
CONTINUOUS
 62
2
 10
37.338716
 20
-175.171996
 30
0.0
 40
81.206298
 50
88.5342277778
 51
90.7667305556
  0
ARC
  8
6
  5
2A
  6
CONTINUOUS
 62
2
 10
37.338716
 20
-175.171996
 30
0.0
 40
80.95629
 50
88.5297
 51
90.7691
  0
LINE
  8
6
  5
2C
  6
CONTINUOUS
 62
2
 10
36.2521
 20
-96.1652
 30
0.0
 11
36.2521
 21
-94.223
 31
0.0
  0
LINE
  8
6
  5
2E
  6
CONTINUOUS
 62
2
 10
36.2521
 20
-93.9729
 30
0.0
 11
36.2521
 21
-93.4806
 31
0.0
  0
LINE
  8
6
  5
30
  6
CONTINUOUS
 62
2
 10
39.666
 20
-93.4988
 30
0.0
 11
39.666
 21
-93.9989
 31
0.0
  0
LINE
  8
6
  5
32
  6
CONTINUOUS
 62
2
 10
39.666
 20
-94.2492
 30
0.0
 11
39.666
 21
-96.1652
 31
0.0
  0
LINE
  8
6
  5
34
  6
CONTINUOUS
 62
2
 10
42.6299
 20
-93.6372
 30
0.0
 11
42.6299
 21
-94.0837
 31
0.0
  0
LINE
  8
6
  5
36
  6
CONTINUOUS
 62
2
 10
42.6299
 20
-94.334
 30
0.0
 11
42.6299
 21
-96.1652
 31
0.0
  0
LINE
  8
6
  5
38
  6
CONTINUOUS
 62
2
 10
39.666
 20
-93.9989
 30
0.0
 11
42.6299
 21
-94.0837
 31
0.0
  0
LINE
  8
6
  5
3A
  6
CONTINUOUS
 62
2
 10
42.8799
 20
-94.0909
 30
0.0
 11
45.4189
 21
-94.1635
 31
0.0
  0
LINE
  8
6
  5
3C
  6
CONTINUOUS
 62
2
 10
42.8799
 20
-93.6538
 30
0.0
 11
42.8799
 21
-94.0909
 31
0.0
  0
LINE
  8
6
  5
3E
  6
CONTINUOUS
 62
2
 10
42.8799
 20
-94.341
 30
0.0
 11
42.8799
 21
-96.1652
 31
0.0
  0
LINE
  8
6
  5
40
  6
CONTINUOUS
 62
2
 10
39.666
 20
-94.2492
 30
0.0
 11
42.6299
 21
-94.334
 31
0.0
  0
LINE
  8
6
  5
42
  6
CONTINUOUS
 62
2
 10
42.8799
 20
-94.341
 30
0.0
 11
45.4189
 21
-94.4136
 31
0.0
  0
LINE
  8
2
  5
44
  6
CONTINUOUS
 62
2
 10
45.4189
 20
-93.8662
 30
0.0
 11
45.4189
 21
-94.1635
 31
0.0
  0
LINE
  8
2
  5
46
  6
CONTINUOUS
 62
2
 10
45.4189
 20
-94.4136
 30
0.0
 11
45.4189
 21
-96.1652
 31
0.0
  0
LINE
  8
6
  5
48
  6
CONTINUOUS
 62
2
 10
31.6974
 20
-86.6957
 30
0.0
 11
36.0021
 21
-85.3858
 31
0.0
  0
LINE
  8
6
  5
4A
  6
CONTINUOUS
 62
2
 10
31.6974
 20
-88.8073
 30
0.0
 11
36.0021
 21
-90.1172
 31
0.0
  0
LINE
  8
1
  5
4C
  6
CONTINUOUS
 62
2
 10
31.9475
 20
-88.495
 30
0.0
 11
31.9475
 21
-87.008
 31
0.0
  0
LINE
  8
6
  5
4E
  6
CONTINUOUS
 62
2
 10
31.9475
 20
-86.7502
 30
0.0
 11
36.0021
 21
-85.5164
 31
0.0
  0
LINE
  8
6
  5
50
  6
CONTINUOUS
 62
2
 10
31.9475
 20
-88.7529
 30
0.0
 11
36.0021
 21
-89.9867
 31
0.0
  0
ARC
  8
6
  5
52
  6
CONTINUOUS
 62
2
 10
37.580218
 20
-66.365978
 30
0.0
 40
23.084622
 50
255.8770777778
 51
266.0799194444
  0
ARC
  8
6
  5
54
  6
CONTINUOUS
 62
2
 10
37.580218
 20
-66.365978
 30
0.0
 40
22.834613
 50
255.7191861111
 51
266.0369305556
  0
LINE
  8
6
  5
56
  6
CONTINUOUS
 62
2
 10
36.0021
 20
-89.9867
 30
0.0
 11
36.0021
 21
-89.3966
 31
0.0
  0
ARC
  8
6
  5
58
  6
CONTINUOUS
 62
2
 10
37.580218
 20
-109.137063
 30
0.0
 40
23.084622
 50
93.9200805556
 51
104.1229222222
  0
ARC
  8
6
  5
5A
  6
CONTINUOUS
 62
2
 10
37.580218
 20
-109.137063
 30
0.0
 40
22.834613
 50
93.9630694444
 51
104.2808138889
  0
LINE
  8
6
  5
5C
  6
CONTINUOUS
 62
2
 10
36.0021
 20
-89.146
 30
0.0
 11
36.0021
 21
-86.357
 31
0.0
  0
LINE
  8
6
  5
5E
  6
CONTINUOUS
 62
2
 10
36.0021
 20
-86.1064
 30
0.0
 11
36.0021
 21
-85.5164
 31
0.0
  0
LINE
  8
6
  5
60
  6
CONTINUOUS
 62
2
 10
42.8799
 20
-89.9426
 30
0.0
 11
42.8799
 21
-89.2515
 31
0.0
  0
LINE
  8
6
  5
62
  6
CONTINUOUS
 62
2
 10
42.6299
 20
-89.9575
 30
0.0
 11
42.6299
 21
-89.2569
 31
0.0
  0
LINE
  8
6
  5
64
  6
CONTINUOUS
 62
2
 10
42.8799
 20
-89.0015
 30
0.0
 11
42.8799
 21
-86.5015
 31
0.0
  0
LINE
  8
6
  5
66
  6
CONTINUOUS
 62
2
 10
42.8799
 20
-86.2514
 30
0.0
 11
42.8799
 21
-85.5604
 31
0.0
  0
LINE
  8
6
  5
68
  6
CONTINUOUS
 62
2
 10
42.6299
 20
-89.0068
 30
0.0
 11
42.6299
 21
-86.4963
 31
0.0
  0
LINE
  8
6
  5
6A
  6
CONTINUOUS
 62
2
 10
42.6299
 20
-86.2461
 30
0.0
 11
42.6299
 21
-85.5455
 31
0.0
  0
LINE
  8
6
  5
6C
  6
CONTINUOUS
 62
2
 10
39.666
 20
-86.1837
 30
0.0
 11
39.666
 21
-85.4445
 31
0.0
  0
LINE
  8
6
  5
6E
  6
CONTINUOUS
 62
2
 10
39.416
 20
-86.1785
 30
0.0
 11
39.416
 21
-85.4423
 31
0.0
  0
LINE
  8
6
  5
70
  6
CONTINUOUS
 62
2
 10
39.666
 20
-90.0586
 30
0.0
 11
39.666
 21
-89.3193
 31
0.0
  0
LINE
  8
6
  5
72
  6
CONTINUOUS
 62
2
 10
39.666
 20
-89.0692
 30
0.0
 11
39.666
 21
-86.4338
 31
0.0
  0
LINE
  8
6
  5
74
  6
CONTINUOUS
 62
2
 10
39.416
 20
-90.0607
 30
0.0
 11
39.416
 21
-89.3245
 31
0.0
  0
LINE
  8
6
  5
76
  6
CONTINUOUS
 62
2
 10
39.416
 20
-89.0744
 30
0.0
 11
39.416
 21
-86.4286
 31
0.0
  0
LINE
  8
6
  5
78
  6
CONTINUOUS
 62
2
 10
36.2521
 20
-86.1118
 30
0.0
 11
36.2521
 21
-85.4996
 31
0.0
  0
LINE
  8
6
  5
7A
  6
CONTINUOUS
 62
2
 10
36.2521
 20
-90.0033
 30
0.0
 11
36.2521
 21
-89.3913
 31
0.0
  0
LINE
  8
6
  5
7C
  6
CONTINUOUS
 62
2
 10
36.2521
 20
-89.1412
 30
0.0
 11
36.2521
 21
-86.3619
 31
0.0
  0
LINE
  8
6
  5
7E
  6
CONTINUOUS
 62
2
 10
45.4189
 20
-86.305
 30
0.0
 11
45.4189
 21
-85.7679
 31
0.0
  0
LINE
  8
6
  5
80
  6
CONTINUOUS
 62
2
 10
45.4189
 20
-89.7352
 30
0.0
 11
45.4189
 21
-89.198
 31
0.0
  0
LINE
  8
6
  5
82
  6
CONTINUOUS
 62
2
 10
45.4189
 20
-88.9479
 30
0.0
 11
45.4189
 21
-86.5551
 31
0.0
  0
LINE
  8
6
  5
84
  6
CONTINUOUS
 62
2
 10
36.2521
 20
-86.1118
 30
0.0
 11
39.416
 21
-86.1785
 31
0.0
  0
LINE
  8
6
  5
86
  6
CONTINUOUS
 62
2
 10
36.2521
 20
-86.3619
 30
0.0
 11
39.416
 21
-86.4286
 31
0.0
  0
ARC
  8
1
  5
88
  6
CONTINUOUS
 62
2
 10
38.985449
 20
-148.867226
 30
0.0
 40
63.426461
 50
84.1784194444
 51
86.4797888889
  0
ARC
  8
1
  5
8A
  6
CONTINUOUS
 62
2
 10
38.985449
 20
-148.867226
 30
0.0
 40
63.426461
 50
89.6111027778
 51
92.4699611111
  0
ARC
  8
1
  5
8C
  6
CONTINUOUS
 62
2
 10
38.985449
 20
-148.867226
 30
0.0
 40
63.426461
 50
86.7060333333
 51
89.38525
  0
ARC
  8
1
  5
8E
  6
CONTINUOUS
 62
2
 10
38.985449
 20
-26.635815
 30
0.0
 40
63.426461
 50
267.5300388889
 51
270.3888972222
  0
LINE
  8
6
  5
90
  6
CONTINUOUS
 62
2
 10
36.2521
 20
-89.3913
 30
0.0
 11
39.416
 21
-89.3245
 31
0.0
  0
LINE
  8
6
  5
92
  6
CONTINUOUS
 62
2
 10
36.2521
 20
-89.1412
 30
0.0
 11
39.416
 21
-89.0744
 31
0.0
  0
LINE
  8
6
  5
94
  6
CONTINUOUS
 62
2
 10
39.666
 20
-86.1837
 30
0.0
 11
42.6299
 21
-86.2461
 31
0.0
  0
LINE
  8
6
  5
96
  6
CONTINUOUS
 62
2
 10
42.8799
 20
-86.2514
 30
0.0
 11
45.4189
 21
-86.305
 31
0.0
  0
LINE
  8
6
  5
98
  6
CONTINUOUS
 62
2
 10
39.666
 20
-86.4338
 30
0.0
 11
42.6299
 21
-86.4963
 31
0.0
  0
LINE
  8
6
  5
9A
  6
CONTINUOUS
 62
2
 10
42.8799
 20
-86.5015
 30
0.0
 11
45.4189
 21
-86.5551
 31
0.0
  0
LINE
  8
6
  5
9C
  6
CONTINUOUS
 62
2
 10
39.666
 20
-89.0692
 30
0.0
 11
42.6299
 21
-89.0068
 31
0.0
  0
LINE
  8
6
  5
9E
  6
CONTINUOUS
 62
2
 10
42.8799
 20
-89.0015
 30
0.0
 11
45.4189
 21
-88.9479
 31
0.0
  0
LINE
  8
6
  5
A0
  6
CONTINUOUS
 62
2
 10
39.666
 20
-89.3193
 30
0.0
 11
42.6299
 21
-89.2569
 31
0.0
  0
LINE
  8
6
  5
A2
  6
CONTINUOUS
 62
2
 10
42.8799
 20
-89.2515
 30
0.0
 11
45.4189
 21
-89.198
 31
0.0
  0
ARC
  8
1
  5
A4
  6
CONTINUOUS
 62
2
 10
38.985449
 20
-26.635815
 30
0.0
 40
63.426461
 50
270.61475
 51
273.2939666667
  0
ARC
  8
1
  5
A6
  6
CONTINUOUS
 62
2
 10
38.985449
 20
-26.635815
 30
0.0
 40
63.426461
 50
273.5202111111
 51
275.8215805556
  0
LINE
  8
6
  5
A8
  6
CONTINUOUS
 62
2
 10
36.204
 20
-96.4152
 30
0.0
 11
45.6688
 21
-96.4152
 31
0.0
  0
POLYLINE
  8
1
  5
AA
  6
CONTINUOUS
 62
2
 10
0.0
 20
0.0
 30
0.0
 66
1
 70
0
  0
VERTEX
  8
1
  5
AB
  6
CONTINUOUS
 62
2
 10
49.505429
 20
-82.831075
 30
0.0
 42
0.04635
  0
VERTEX
  8
1
  5
AC
  6
CONTINUOUS
 62
2
 10
49.463334
 20
-82.375272
 30
0.0
 42
0.046741
  0
VERTEX
  8
1
  5
AD
  6
CONTINUOUS
 62
2
 10
49.338264
 20
-81.936948
 30
0.0
 42
0.047482
  0
VERTEX
  8
1
  5
AE
  6
CONTINUOUS
 62
2
 10
49.135027
 20
-81.532952
 30
0.0
 42
0.048486
  0
VERTEX
  8
1
  5
AF
  6
CONTINUOUS
 62
2
 10
48.861434
 20
-81.178816
 30
0.0
 42
0.049621
  0
VERTEX
  8
1
  5
B0
  6
CONTINUOUS
 62
2
 10
48.528004
 20
-80.888151
 30
0.0
 42
0.050718
  0
VERTEX
  8
1
  5
B1
  6
CONTINUOUS
 62
2
 10
48.147554
 20
-80.672132
 30
0.0
 42
0.051591
  0
VERTEX
  8
1
  5
B2
  6
CONTINUOUS
 62
2
 10
47.734708
 20
-80.539063
 30
0.0
 42
0.052076
  0
VERTEX
  8
1
  5
B3
  6
CONTINUOUS
 62
2
 10
47.305336
 20
-80.494058
 30
0.0
 42
0.052077
  0
VERTEX
  8
1
  5
B4
  6
CONTINUOUS
 62
2
 10
46.875945
 20
-80.538848
 30
0.0
 42
0.051593
  0
VERTEX
  8
1
  5
B5
  6
CONTINUOUS
 62
2
 10
46.46304
 20
-80.671711
 30
0.0
 42
0.050721
  0
VERTEX
  8
1
  5
B6
  6
CONTINUOUS
 62
2
 10
46.082494
 20
-80.88754
 30
0.0
 42
0.049624
  0
VERTEX
  8
1
  5
B7
  6
CONTINUOUS
 62
2
 10
45.748935
 20
-81.178038
 30
0.0
 42
0.048488
  0
VERTEX
  8
1
  5
B8
  6
CONTINUOUS
 62
2
 10
45.475185
 20
-81.532037
 30
0.0
 42
0.047484
  0
VERTEX
  8
1
  5
B9
  6
CONTINUOUS
 62
2
 10
45.271769
 20
-81.935931
 30
0.0
 42
0.046742
  0
VERTEX
  8
1
  5
BA
  6
CONTINUOUS
 62
2
 10
45.146504
 20
-82.374193
 30
0.0
 42
0.046351
  0
VERTEX
  8
1
  5
BB
  6
CONTINUOUS
 62
2
 10
45.104208
 20
-82.829975
 30
0.0
 42
0.046351
  0
SEQEND
  8
1
  5
BC
  0
LINE
  8
1
  5
BE
  6
CONTINUOUS
 62
2
 10
49.5054
 20
-83.0811
 30
0.0
 11
49.6305
 21
-83.0811
 31
0.0
  0
LINE
  8
6
  5
C0
  6
CONTINUOUS
 62
2
 10
49.5054
 20
-83.0811
 30
0.0
 11
49.5054
 21
-82.831
 31
0.0
  0
LINE
  8
1
  5
C2
  6
CONTINUOUS
 62
2
 10
45.1042
 20
-83.0811
 30
0.0
 11
44.9792
 21
-83.0811
 31
0.0
  0
LINE
  8
6
  5
C4
  6
CONTINUOUS
 62
2
 10
44.9792
 20
-83.0811
 30
0.0
 11
44.9792
 21
-82.9706
 31
0.0
  0
LINE
  8
1
  5
C6
  6
CONTINUOUS
 62
2
 10
45.1042
 20
-82.831
 30
0.0
 11
45.0105
 21
-82.831
 31
0.0
  0
LINE
  8
6
  5
C8
  6
CONTINUOUS
 62
2
 10
45.1042
 20
-83.0811
 30
0.0
 11
45.1042
 21
-82.831
 31
0.0
  0
LINE
  8
6
  5
CA
  6
CONTINUOUS
 62
2
 10
49.5054
 20
-83.0811
 30
0.0
 11
45.1042
 21
-83.0811
 31
0.0
  0
LINE
  8
6
  5
CC
  6
CONTINUOUS
 62
2
 10
48.8062
 20
-81.1223
 30
0.0
 11
48.8722
 21
-81.0558
 31
0.0
  0
LINE
  8
6
  5
CE
  6
CONTINUOUS
 62
2
 10
48.6188
 20
-80.9563
 30
0.0
 11
48.6853
 21
-80.8891
 31
0.0
  0
LINE
  8
6
  5
D0
  6
CONTINUOUS
 62
2
 10
47.3673
 20
-80.4958
 30
0.0
 11
47.3673
 21
-80.4013
 31
0.0
  0
LINE
  8
6
  5
D2
  6
CONTINUOUS
 62
2
 10
47.2423
 20
-80.4958
 30
0.0
 11
47.2423
 21
-80.4013
 31
0.0
  0
LINE
  8
6
  5
D4
  6
CONTINUOUS
 62
2
 10
45.8033
 20
-81.1223
 30
0.0
 11
45.7373
 21
-81.0558
 31
0.0
  0
LINE
  8
6
  5
D6
  6
CONTINUOUS
 62
2
 10
45.9907
 20
-80.9563
 30
0.0
 11
45.9246
 21
-80.8891
 31
0.0
  0
LINE
  8
1
  5
D8
  6
CONTINUOUS
 62
2
 10
49.5054
 20
-83.0811
 30
0.0
 11
49.6305
 21
-83.0811
 31
0.0
  0
LINE
  8
6
  5
DA
  6
CONTINUOUS
 62
2
 10
49.6305
 20
-83.0811
 30
0.0
 11
49.6305
 21
-82.9706
 31
0.0
  0
LINE
  8
1
  5
DC
  6
CONTINUOUS
 62
2
 10
49.5054
 20
-82.831
 30
0.0
 11
49.5991
 21
-82.831
 31
0.0
  0
LINE
  8
6
  5
DE
  6
CONTINUOUS
 62
2
 10
49.5054
 20
-83.0811
 30
0.0
 11
49.5054
 21
-82.831
 31
0.0
  0
LINE
  8
6
  5
E0
  6
CONTINUOUS
 62
2
 10
39.6362
 20
-83.0857
 30
0.0
 11
44.284
 21
-83.0857
 31
0.0
  0
LINE
  8
6
  5
E2
  6
CONTINUOUS
 62
2
 10
33.5313
 20
-83.1205
 30
0.0
 11
38.3978
 21
-83.1205
 31
0.0
  0
LINE
  8
6
  5
E4
  6
CONTINUOUS
 62
2
 10
27.7542
 20
-83.1315
 30
0.0
 11
32.4973
 21
-83.1315
 31
0.0
  0
LINE
  8
6
  5
E6
  6
CONTINUOUS
 62
2
 10
30.1257
 20
-80.2535
 30
0.0
 11
30.1257
 21
-79.9275
 31
0.0
  0
TEXT
  8
1
  5
E8
  6
CONTINUOUS
 62
3
 10
29.9271
 20
-81.6279
 30
0.0
  1
C-1
 40
0.3329
 41
1.0
  7
STANDARD
  0
POLYLINE
  8
1
  5
EA
  6
CONTINUOUS
 62
2
 10
0.0
 20
0.0
 30
0.0
 66
1
 70
0
  0
VERTEX
  8
1
  5
EB
  6
CONTINUOUS
 62
2
 10
49.599183
 20
-82.831075
 30
0.0
 42
0.046458
  0
VERTEX
  8
1
  5
EC
  6
CONTINUOUS
 62
2
 10
49.555288
 20
-82.356981
 30
0.0
 42
0.046835
  0
VERTEX
  8
1
  5
ED
  6
CONTINUOUS
 62
2
 10
49.424883
 20
-81.901069
 30
0.0
 42
0.047548
  0
VERTEX
  8
1
  5
EE
  6
CONTINUOUS
 62
2
 10
49.212982
 20
-81.480865
 30
0.0
 42
0.048514
  0
VERTEX
  8
1
  5
EF
  6
CONTINUOUS
 62
2
 10
48.92773
 20
-81.112521
 30
0.0
 42
0.049605
  0
VERTEX
  8
1
  5
F0
  6
CONTINUOUS
 62
2
 10
48.580093
 20
-80.810197
 30
0.0
 42
0.050656
  0
VERTEX
  8
1
  5
F1
  6
CONTINUOUS
 62
2
 10
48.183434
 20
-80.585514
 30
0.0
 42
0.051492
  0
VERTEX
  8
1
  5
F2
  6
CONTINUOUS
 62
2
 10
47.753
 20
-80.447109
 30
0.0
 42
0.051956
  0
VERTEX
  8
1
  5
F3
  6
CONTINUOUS
 62
2
 10
47.305338
 20
-80.400303
 30
0.0
 42
0.051956
  0
VERTEX
  8
1
  5
F4
  6
CONTINUOUS
 62
2
 10
46.857656
 20
-80.446895
 30
0.0
 42
0.051493
  0
VERTEX
  8
1
  5
F5
  6
CONTINUOUS
 62
2
 10
46.427163
 20
-80.585093
 30
0.0
 42
0.050659
  0
VERTEX
  8
1
  5
F6
  6
CONTINUOUS
 62
2
 10
46.030407
 20
-80.809586
 30
0.0
 42
0.049607
  0
VERTEX
  8
1
  5
F7
  6
CONTINUOUS
 62
2
 10
45.682641
 20
-81.111743
 30
0.0
 42
0.048517
  0
VERTEX
  8
1
  5
F8
  6
CONTINUOUS
 62
2
 10
45.397231
 20
-81.47995
 30
0.0
 42
0.04755
  0
VERTEX
  8
1
  5
F9
  6
CONTINUOUS
 62
2
 10
45.185151
 20
-81.900053
 30
0.0
 42
0.046836
  0
VERTEX
  8
1
  5
FA
  6
CONTINUOUS
 62
2
 10
45.054551
 20
-82.355902
 30
0.0
 42
0.046458
  0
VERTEX
  8
1
  5
FB
  6
CONTINUOUS
 62
2
 10
45.010453
 20
-82.829975
 30
0.0
 42
0.046458
  0
SEQEND
  8
1
  5
FC
  0
LINE
  8
6
  5
FE
  6
CONTINUOUS
 62
2
 10
49.5991
 20
-82.831
 30
0.0
 11
49.6305
 21
-82.9706
 31
0.0
  0
LINE
  8
6
  5
100
  6
CONTINUOUS
 62
2
 10
45.0105
 20
-82.831
 30
0.0
 11
44.9792
 21
-82.9706
 31
0.0
  0
POLYLINE
  8
6
  5
102
  6
CONTINUOUS
 62
2
 10
0.0
 20
0.0
 30
0.0
 66
1
 70
0
  0
VERTEX
  8
6
  5
103
  6
CONTINUOUS
 62
2
 10
32.497163
 20
-83.131534
 30
0.0
 42
0.039376
  0
VERTEX
  8
6
  5
104
  6
CONTINUOUS
 62
2
 10
32.451595
 20
-82.551774
 30
0.0
 42
0.040478
  0
VERTEX
  8
6
  5
105
  6
CONTINUOUS
 62
2
 10
32.316642
 20
-81.994295
 30
0.0
 42
0.042682
  0
VERTEX
  8
6
  5
106
  6
CONTINUOUS
 62
2
 10
32.09749
 20
-81.480518
 30
0.0
 42
0.045948
  0
VERTEX
  8
6
  5
107
  6
CONTINUOUS
 62
2
 10
31.802561
 20
-81.03019
 30
0.0
 42
0.05009
  0
VERTEX
  8
6
  5
108
  6
CONTINUOUS
 62
2
 10
31.443189
 20
-80.660615
 30
0.0
 42
0.054629
  0
VERTEX
  8
6
  5
109
  6
CONTINUOUS
 62
2
 10
31.033185
 20
-80.385995
 30
0.0
 42
0.05869
  0
VERTEX
  8
6
  5
10A
  6
CONTINUOUS
 62
2
 10
30.588304
 20
-80.216886
 30
0.0
 42
0.061146
  0
VERTEX
  8
6
  5
10B
  6
CONTINUOUS
 62
2
 10
30.125644
 20
-80.159784
 30
0.0
 42
0.061146
  0
VERTEX
  8
6
  5
10C
  6
CONTINUOUS
 62
2
 10
29.662983
 20
-80.216886
 30
0.0
 42
0.05869
  0
VERTEX
  8
6
  5
10D
  6
CONTINUOUS
 62
2
 10
29.218103
 20
-80.385995
 30
0.0
 42
0.054629
  0
VERTEX
  8
6
  5
10E
  6
CONTINUOUS
 62
2
 10
28.808098
 20
-80.660615
 30
0.0
 42
0.05009
  0
VERTEX
  8
6
  5
10F
  6
CONTINUOUS
 62
2
 10
28.448726
 20
-81.03019
 30
0.0
 42
0.045948
  0
VERTEX
  8
6
  5
110
  6
CONTINUOUS
 62
2
 10
28.153798
 20
-81.480518
 30
0.0
 42
0.042682
  0
VERTEX
  8
6
  5
111
  6
CONTINUOUS
 62
2
 10
27.934646
 20
-81.994295
 30
0.0
 42
0.040478
  0
VERTEX
  8
6
  5
112
  6
CONTINUOUS
 62
2
 10
27.799693
 20
-82.551774
 30
0.0
 42
0.039376
  0
VERTEX
  8
6
  5
113
  6
CONTINUOUS
 62
2
 10
27.754125
 20
-83.131534
 30
0.0
 42
0.039376
  0
SEQEND
  8
6
  5
114
  0
POLYLINE
  8
6
  5
116
  6
CONTINUOUS
 62
2
 10
0.0
 20
0.0
 30
0.0
 66
1
 70
0
  0
VERTEX
  8
6
  5
117
  6
CONTINUOUS
 62
2
 10
32.403408
 20
-83.131534
 30
0.0
 42
0.039056
  0
VERTEX
  8
6
  5
118
  6
CONTINUOUS
 62
2
 10
32.359642
 20
-82.570065
 30
0.0
 42
0.040182
  0
VERTEX
  8
6
  5
119
  6
CONTINUOUS
 62
2
 10
32.230024
 20
-82.030173
 30
0.0
 42
0.042439
  0
VERTEX
  8
6
  5
11A
  6
CONTINUOUS
 62
2
 10
32.019536
 20
-81.532606
 30
0.0
 42
0.045797
  0
VERTEX
  8
6
  5
11B
  6
CONTINUOUS
 62
2
 10
31.736266
 20
-81.096484
 30
0.0
 42
0.050078
  0
VERTEX
  8
6
  5
11C
  6
CONTINUOUS
 62
2
 10
31.391102
 20
-80.738569
 30
0.0
 42
0.054801
  0
VERTEX
  8
6
  5
11D
  6
CONTINUOUS
 62
2
 10
30.997306
 20
-80.472613
 30
0.0
 42
0.059052
  0
VERTEX
  8
6
  5
11E
  6
CONTINUOUS
 62
2
 10
30.570014
 20
-80.308839
 30
0.0
 42
0.061635
  0
VERTEX
  8
6
  5
11F
  6
CONTINUOUS
 62
2
 10
30.125644
 20
-80.253539
 30
0.0
 42
0.061635
  0
VERTEX
  8
6
  5
120
  6
CONTINUOUS
 62
2
 10
29.681274
 20
-80.308839
 30
0.0
 42
0.059052
  0
VERTEX
  8
6
  5
121
  6
CONTINUOUS
 62
2
 10
29.253981
 20
-80.472613
 30
0.0
 42
0.054801
  0
VERTEX
  8
6
  5
122
  6
CONTINUOUS
 62
2
 10
28.860186
 20
-80.738569
 30
0.0
 42
0.050078
  0
VERTEX
  8
6
  5
123
  6
CONTINUOUS
 62
2
 10
28.515021
 20
-81.096484
 30
0.0
 42
0.045797
  0
VERTEX
  8
6
  5
124
  6
CONTINUOUS
 62
2
 10
28.231752
 20
-81.532606
 30
0.0
 42
0.042439
  0
VERTEX
  8
6
  5
125
  6
CONTINUOUS
 62
2
 10
28.021264
 20
-82.030173
 30
0.0
 42
0.040182
  0
VERTEX
  8
6
  5
126
  6
CONTINUOUS
 62
2
 10
27.891646
 20
-82.570065
 30
0.0
 42
0.039056
  0
VERTEX
  8
6
  5
127
  6
CONTINUOUS
 62
2
 10
27.847879
 20
-83.131534
 30
0.0
 42
0.039056
  0
SEQEND
  8
6
  5
128
  0
TEXT
  8
1
  5
12A
  6
CONTINUOUS
 62
3
 10
47.0043
 20
-82.2788
 30
0.0
  1
C-4
 40
0.3329
 41
1.0
  7
STANDARD
  0
LINE
  8
6
  5
12C
  6
CONTINUOUS
 62
2
 10
35.9646
 20
-80.2631
 30
0.0
 11
35.9646
 21
-80.022
 31
0.0
  0
POLYLINE
  8
6
  5
12E
  6
CONTINUOUS
 62
2
 10
0.0
 20
0.0
 30
0.0
 66
1
 70
0
  0
VERTEX
  8
6
  5
12F
  6
CONTINUOUS
 62
2
 10
38.39796
 20
-83.120533
 30
0.0
 42
0.040663
  0
VERTEX
  8
6
  5
130
  6
CONTINUOUS
 62
2
 10
38.351204
 20
-82.544793
 30
0.0
 42
0.041661
  0
VERTEX
  8
6
  5
131
  6
CONTINUOUS
 62
2
 10
38.212734
 20
-81.991178
 30
0.0
 42
0.04364
  0
VERTEX
  8
6
  5
132
  6
CONTINUOUS
 62
2
 10
37.987871
 20
-81.480963
 30
0.0
 42
0.046524
  0
VERTEX
  8
6
  5
133
  6
CONTINUOUS
 62
2
 10
37.685256
 20
-81.033756
 30
0.0
 42
0.050102
  0
VERTEX
  8
6
  5
134
  6
CONTINUOUS
 62
2
 10
37.316519
 20
-80.666743
 30
0.0
 42
0.053927
  0
VERTEX
  8
6
  5
135
  6
CONTINUOUS
 62
2
 10
36.895829
 20
-80.394028
 30
0.0
 42
0.057266
  0
VERTEX
  8
6
  5
136
  6
CONTINUOUS
 62
2
 10
36.439355
 20
-80.22609
 30
0.0
 42
0.059249
  0
VERTEX
  8
6
  5
137
  6
CONTINUOUS
 62
2
 10
35.964637
 20
-80.169385
 30
0.0
 42
0.059249
  0
VERTEX
  8
6
  5
138
  6
CONTINUOUS
 62
2
 10
35.48992
 20
-80.22609
 30
0.0
 42
0.057266
  0
VERTEX
  8
6
  5
139
  6
CONTINUOUS
 62
2
 10
35.033445
 20
-80.394028
 30
0.0
 42
0.053927
  0
VERTEX
  8
6
  5
13A
  6
CONTINUOUS
 62
2
 10
34.612756
 20
-80.666743
 30
0.0
 42
0.050102
  0
VERTEX
  8
6
  5
13B
  6
CONTINUOUS
 62
2
 10
34.244019
 20
-81.033756
 30
0.0
 42
0.046524
  0
VERTEX
  8
6
  5
13C
  6
CONTINUOUS
 62
2
 10
33.941404
 20
-81.480963
 30
0.0
 42
0.04364
  0
VERTEX
  8
6
  5
13D
  6
CONTINUOUS
 62
2
 10
33.716541
 20
-81.991178
 30
0.0
 42
0.041661
  0
VERTEX
  8
6
  5
13E
  6
CONTINUOUS
 62
2
 10
33.578071
 20
-82.544793
 30
0.0
 42
0.040663
  0
VERTEX
  8
6
  5
13F
  6
CONTINUOUS
 62
2
 10
33.531315
 20
-83.120533
 30
0.0
 42
0.040663
  0
SEQEND
  8
6
  5
140
  0
POLYLINE
  8
6
  5
142
  6
CONTINUOUS
 62
2
 10
0.0
 20
0.0
 30
0.0
 66
1
 70
0
  0
VERTEX
  8
6
  5
143
  6
CONTINUOUS
 62
2
 10
38.304205
 20
-83.120533
 30
0.0
 42
0.040384
  0
VERTEX
  8
6
  5
144
  6
CONTINUOUS
 62
2
 10
38.259251
 20
-82.563083
 30
0.0
 42
0.041406
  0
VERTEX
  8
6
  5
145
  6
CONTINUOUS
 62
2
 10
38.126116
 20
-82.027056
 30
0.0
 42
0.043435
  0
VERTEX
  8
6
  5
146
  6
CONTINUOUS
 62
2
 10
37.909917
 20
-81.53305
 30
0.0
 42
0.046403
  0
VERTEX
  8
6
  5
147
  6
CONTINUOUS
 62
2
 10
37.618961
 20
-81.100051
 30
0.0
 42
0.050104
  0
VERTEX
  8
6
  5
148
  6
CONTINUOUS
 62
2
 10
37.264431
 20
-80.744697
 30
0.0
 42
0.054081
  0
VERTEX
  8
6
  5
149
  6
CONTINUOUS
 62
2
 10
36.859951
 20
-80.480646
 30
0.0
 42
0.057571
  0
VERTEX
  8
6
  5
14A
  6
CONTINUOUS
 62
2
 10
36.421064
 20
-80.318044
 30
0.0
 42
0.059651
  0
VERTEX
  8
6
  5
14B
  6
CONTINUOUS
 62
2
 10
35.964637
 20
-80.26314
 30
0.0
 42
0.059651
  0
VERTEX
  8
6
  5
14C
  6
CONTINUOUS
 62
2
 10
35.50821
 20
-80.318044
 30
0.0
 42
0.057571
  0
VERTEX
  8
6
  5
14D
  6
CONTINUOUS
 62
2
 10
35.069323
 20
-80.480646
 30
0.0
 42
0.054081
  0
VERTEX
  8
6
  5
14E
  6
CONTINUOUS
 62
2
 10
34.664843
 20
-80.744697
 30
0.0
 42
0.050104
  0
VERTEX
  8
6
  5
14F
  6
CONTINUOUS
 62
2
 10
34.310313
 20
-81.100051
 30
0.0
 42
0.046403
  0
VERTEX
  8
6
  5
150
  6
CONTINUOUS
 62
2
 10
34.019358
 20
-81.53305
 30
0.0
 42
0.043435
  0
VERTEX
  8
6
  5
151
  6
CONTINUOUS
 62
2
 10
33.803159
 20
-82.027056
 30
0.0
 42
0.041406
  0
VERTEX
  8
6
  5
152
  6
CONTINUOUS
 62
2
 10
33.670024
 20
-82.563083
 30
0.0
 42
0.040384
  0
VERTEX
  8
6
  5
153
  6
CONTINUOUS
 62
2
 10
33.62507
 20
-83.120533
 30
0.0
 42
0.040384
  0
SEQEND
  8
6
  5
154
  0
TEXT
  8
1
  5
156
  6
CONTINUOUS
 62
3
 10
35.6336
 20
-82.1225
 30
0.0
  1
C-2
 40
0.3329
 41
1.0
  7
STANDARD
  0
LINE
  8
6
  5
158
  6
CONTINUOUS
 62
2
 10
41.96
 20
-80.3783
 30
0.0
 11
41.96
 21
-80.0762
 31
0.0
  0
POLYLINE
  8
6
  5
15A
  6
CONTINUOUS
 62
2
 10
0.0
 20
0.0
 30
0.0
 66
1
 70
0
  0
VERTEX
  8
6
  5
15B
  6
CONTINUOUS
 62
2
 10
44.284066
 20
-83.085788
 30
0.0
 42
0.04091
  0
VERTEX
  8
6
  5
15C
  6
CONTINUOUS
 62
2
 10
44.239413
 20
-82.539313
 30
0.0
 42
0.041887
  0
VERTEX
  8
6
  5
15D
  6
CONTINUOUS
 62
2
 10
44.107169
 20
-82.013838
 30
0.0
 42
0.04382
  0
VERTEX
  8
6
  5
15E
  6
CONTINUOUS
 62
2
 10
43.892416
 20
-81.529558
 30
0.0
 42
0.046628
  0
VERTEX
  8
6
  5
15F
  6
CONTINUOUS
 62
2
 10
43.603407
 20
-81.105082
 30
0.0
 42
0.050098
  0
VERTEX
  8
6
  5
160
  6
CONTINUOUS
 62
2
 10
43.251249
 20
-80.756725
 30
0.0
 42
0.05379
  0
VERTEX
  8
6
  5
161
  6
CONTINUOUS
 62
2
 10
42.849474
 20
-80.497871
 30
0.0
 42
0.056999
  0
VERTEX
  8
6
  5
162
  6
CONTINUOUS
 62
2
 10
42.413523
 20
-80.33847
 30
0.0
 42
0.058897
  0
VERTEX
  8
6
  5
163
  6
CONTINUOUS
 62
2
 10
41.96015
 20
-80.284647
 30
0.0
 42
0.058897
  0
VERTEX
  8
6
  5
164
  6
CONTINUOUS
 62
2
 10
41.506776
 20
-80.33847
 30
0.0
 42
0.056999
  0
VERTEX
  8
6
  5
165
  6
CONTINUOUS
 62
2
 10
41.070825
 20
-80.497871
 30
0.0
 42
0.05379
  0
VERTEX
  8
6
  5
166
  6
CONTINUOUS
 62
2
 10
40.669051
 20
-80.756725
 30
0.0
 42
0.050098
  0
VERTEX
  8
6
  5
167
  6
CONTINUOUS
 62
2
 10
40.316892
 20
-81.105082
 30
0.0
 42
0.046628
  0
VERTEX
  8
6
  5
168
  6
CONTINUOUS
 62
2
 10
40.027883
 20
-81.529558
 30
0.0
 42
0.04382
  0
VERTEX
  8
6
  5
169
  6
CONTINUOUS
 62
2
 10
39.81313
 20
-82.013838
 30
0.0
 42
0.041887
  0
VERTEX
  8
6
  5
16A
  6
CONTINUOUS
 62
2
 10
39.680886
 20
-82.539313
 30
0.0
 42
0.04091
  0
VERTEX
  8
6
  5
16B
  6
CONTINUOUS
 62
2
 10
39.636233
 20
-83.085788
 30
0.0
 42
0.04091
  0
SEQEND
  8
6
  5
16C
  0
POLYLINE
  8
6
  5
16E
  6
CONTINUOUS
 62
2
 10
0.0
 20
0.0
 30
0.0
 66
1
 70
0
  0
VERTEX
  8
6
  5
16F
  6
CONTINUOUS
 62
2
 10
44.190312
 20
-83.085788
 30
0.0
 42
0.040624
  0
VERTEX
  8
6
  5
170
  6
CONTINUOUS
 62
2
 10
44.14746
 20
-82.557603
 30
0.0
 42
0.041626
  0
VERTEX
  8
6
  5
171
  6
CONTINUOUS
 62
2
 10
44.020551
 20
-82.049716
 30
0.0
 42
0.043612
  0
VERTEX
  8
6
  5
172
  6
CONTINUOUS
 62
2
 10
43.814462
 20
-81.581645
 30
0.0
 42
0.046507
  0
VERTEX
  8
6
  5
173
  6
CONTINUOUS
 62
2
 10
43.537112
 20
-81.171377
 30
0.0
 42
0.050102
  0
VERTEX
  8
6
  5
174
  6
CONTINUOUS
 62
2
 10
43.199161
 20
-80.834679
 30
0.0
 42
0.053948
  0
VERTEX
  8
6
  5
175
  6
CONTINUOUS
 62
2
 10
42.813596
 20
-80.584489
 30
0.0
 42
0.057309
  0
VERTEX
  8
6
  5
176
  6
CONTINUOUS
 62
2
 10
42.395233
 20
-80.430424
 30
0.0
 42
0.059305
  0
VERTEX
  8
6
  5
177
  6
CONTINUOUS
 62
2
 10
41.96015
 20
-80.378402
 30
0.0
 42
0.059305
  0
VERTEX
  8
6
  5
178
  6
CONTINUOUS
 62
2
 10
41.525067
 20
-80.430424
 30
0.0
 42
0.057309
  0
VERTEX
  8
6
  5
179
  6
CONTINUOUS
 62
2
 10
41.106704
 20
-80.584489
 30
0.0
 42
0.053948
  0
VERTEX
  8
6
  5
17A
  6
CONTINUOUS
 62
2
 10
40.721138
 20
-80.834679
 30
0.0
 42
0.050102
  0
VERTEX
  8
6
  5
17B
  6
CONTINUOUS
 62
2
 10
40.383187
 20
-81.171377
 30
0.0
 42
0.046507
  0
VERTEX
  8
6
  5
17C
  6
CONTINUOUS
 62
2
 10
40.105838
 20
-81.581645
 30
0.0
 42
0.043612
  0
VERTEX
  8
6
  5
17D
  6
CONTINUOUS
 62
2
 10
39.899749
 20
-82.049716
 30
0.0
 42
0.041626
  0
VERTEX
  8
6
  5
17E
  6
CONTINUOUS
 62
2
 10
39.772839
 20
-82.557603
 30
0.0
 42
0.040624
  0
VERTEX
  8
6
  5
17F
  6
CONTINUOUS
 62
2
 10
39.729988
 20
-83.085788
 30
0.0
 42
0.040624
  0
SEQEND
  8
6
  5
180
  0
TEXT
  8
1
  5
182
  6
CONTINUOUS
 62
3
 10
41.5937
 20
-82.1264
 30
0.0
  1
C-3
 40
0.3329
 41
1.0
  7
STANDARD
  0
LINE
  8
6
  5
184
  6
CONTINUOUS
 62
2
 10
47.3054
 20
-80.4941
 30
0.0
 11
47.3054
 21
-80.1562
 31
0.0
  0
LINE
  8
6
  5
186
  6
CONTINUOUS
 62
2
 10
38.3885
 20
-82.8605
 30
0.0
 11
38.2945
 21
-82.8605
 31
0.0
  0
LINE
  8
6
  5
188
  6
CONTINUOUS
 62
2
 10
33.6348
 20
-82.8605
 30
0.0
 11
33.5408
 21
-82.8605
 31
0.0
  0
LINE
  8
6
  5
18A
  6
CONTINUOUS
 62
2
 10
44.2744
 20
-82.831
 30
0.0
 11
44.1804
 21
-82.831
 31
0.0
  0
LINE
  8
6
  5
18C
  6
CONTINUOUS
 62
2
 10
39.7398
 20
-82.831
 30
0.0
 11
39.6458
 21
-82.831
 31
0.0
  0
LINE
  8
6
  5
18E
  6
CONTINUOUS
 62
2
 10
32.4872
 20
-82.8605
 30
0.0
 11
32.3932
 21
-82.8605
 31
0.0
  0
LINE
  8
6
  5
190
  6
CONTINUOUS
 62
2
 10
27.858
 20
-82.8605
 30
0.0
 11
27.7641
 21
-82.8605
 31
0.0
  0
POLYLINE
  8
1
  5
192
  6
CONTINUOUS
 62
3
 10
0.0
 20
0.0
 30
0.0
 66
1
 70
1
  0
VERTEX
  8
1
  5
193
  6
CONTINUOUS
 62
3
 10
25.8804
 20
-78.184
 30
0.0
  0
VERTEX
  8
1
  5
194
  6
CONTINUOUS
 62
3
 10
50.9106
 20
-78.184
 30
0.0
  0
VERTEX
  8
1
  5
195
  6
CONTINUOUS
 62
3
 10
50.9106
 20
-98.094
 30
0.0
  0
VERTEX
  8
1
  5
196
  6
CONTINUOUS
 62
3
 10
25.8804
 20
-98.094
 30
0.0
  0
SEQEND
  8
1
  5
197
  0
TEXT
  8
6
  5
199
  6
CONTINUOUS
 62
3
 10
35.9579
 20
-99.0205
 30
0.0
  1
CANOPY FRAMING
 40
0.5006
 41
1.0
  7
STANDARD
 72
4
 11
39.2589
 21
-98.7702
 31
0.0
  0
LINE
  8
1
  5
19B
  6
CONTINUOUS
 62
3
 10
19.8167
 20
-101.7214
 30
0.0
 11
19.8167
 21
-102.9712
 31
0.0
  0
LINE
  8
1
  5
19D
  6
CONTINUOUS
 62
3
 10
35.0921
 20
-105.818
 30
0.0
 11
26.6766
 21
-105.818
 31
0.0
  0
ARC
  8
1
  5
19F
  6
CONTINUOUS
 62
3
 10
28.366023
 20
-34.592182
 30
0.0
 40
68.911607
 50
262.8733583333
 51
263.6236472222
  0
ARC
  8
1
  5
1A1
  6
CONTINUOUS
 62
3
 10
26.408573
 20
-84.606623
 30
0.0
 40
21.213087
 50
254.3679972222
 51
270.7404361111
  0
LINE
  8
1
  5
1A3
  6
CONTINUOUS
 62
3
 10
20.0464
 20
-102.9998
 30
0.0
 11
20.3348
 21
-104.6401
 31
0.0
  0
ARC
  8
1
  5
1A5
  6
CONTINUOUS
 62
3
 10
20.827276
 20
-104.553562
 30
0.0
 40
0.500017
 50
189.9695472222
 51
254.3679972222
  0
LINE
  8
1
  5
1A7
  6
CONTINUOUS
 62
3
 10
41.2361
 20
-104.2549
 30
0.0
 11
24.1258
 21
-104.2549
 31
0.0
  0
ARC
  8
3
  5
1A9
  6
HIDDEN
 62
4
 10
26.408573
 20
-84.606623
 30
0.0
 40
20.838074
 50
253.0001416667
 51
270.7404361111
  0
ARC
  8
1
  5
1AB
  6
CONTINUOUS
 62
3
 10
34.715776
 20
-91.461076
 30
0.0
 40
14.359507
 50
271.50165
 51
297.0059666667
  0
LINE
  8
1
  5
1AD
  6
CONTINUOUS
 62
3
 10
19.9416
 20
-101.7214
 30
0.0
 11
19.9416
 21
-102.9712
 31
0.0
  0
LINE
  8
3
  5
1AF
  6
HIDDEN
 62
4
 10
35.0921
 20
-105.443
 30
0.0
 11
26.6766
 21
-105.443
 31
0.0
  0
ARC
  8
3
  5
1B1
  6
HIDDEN
 62
4
 10
34.715776
 20
-91.461076
 30
0.0
 40
13.984495
 50
271.50165
 51
293.8153527778
  0
LINE
  8
1
  5
1B3
  6
CONTINUOUS
 62
3
 10
24.1258
 20
-101.7214
 30
0.0
 11
19.8167
 21
-101.7214
 31
0.0
  0
LINE
  8
1
  5
1B5
  6
CONTINUOUS
 62
3
 10
24.1258
 20
-104.2549
 30
0.0
 11
24.1258
 21
-101.7214
 31
0.0
  0
LINE
  8
1
  5
1B7
  6
CONTINUOUS
 62
3
 10
24.6881
 20
-101.9225
 30
0.0
 11
24.7223
 21
-101.9511
 31
0.0
  0
LINE
  8
1
  5
1B9
  6
CONTINUOUS
 62
3
 10
24.7223
 20
-101.9511
 30
0.0
 11
24.7223
 21
-102.0601
 31
0.0
  0
LINE
  8
1
  5
1BB
  6
CONTINUOUS
 62
3
 10
24.6881
 20
-101.9225
 30
0.0
 11
24.6881
 21
-102.0888
 31
0.0
  0
LINE
  8
1
  5
1BD
  6
CONTINUOUS
 62
3
 10
24.6881
 20
-102.0888
 30
0.0
 11
24.7223
 21
-102.0601
 31
0.0
  0
LINE
  8
2
  5
1BF
  6
HIDDEN
 62
4
 10
23.4697
 20
-101.9225
 30
0.0
 11
23.4697
 21
-102.0888
 31
0.0
  0
LINE
  8
2
  5
1C1
  6
HIDDEN
 62
4
 10
23.4697
 20
-101.9225
 30
0.0
 11
24.1258
 21
-101.9225
 31
0.0
  0
LINE
  8
1
  5
1C3
  6
CONTINUOUS
 62
3
 10
24.1258
 20
-101.9225
 30
0.0
 11
24.6881
 21
-101.9225
 31
0.0
  0
LINE
  8
2
  5
1C5
  6
HIDDEN
 62
4
 10
23.4697
 20
-102.0888
 30
0.0
 11
24.1258
 21
-102.0888
 31
0.0
  0
LINE
  8
1
  5
1C7
  6
CONTINUOUS
 62
3
 10
24.1258
 20
-102.0888
 30
0.0
 11
24.6881
 21
-102.0888
 31
0.0
  0
LINE
  8
2
  5
1C9
  6
HIDDEN
 62
4
 10
20.3052
 20
-103.0307
 30
0.0
 11
20.5834
 21
-104.6139
 31
0.0
  0
POLYLINE
  8
1
  5
1CB
  6
CONTINUOUS
 62
3
 10
0.0
 20
0.0
 30
0.0
 66
1
 70
1
  0
VERTEX
  8
1
  5
1CC
  6
CONTINUOUS
 62
3
 10
16.548
 20
-100.4362
 30
0.0
  0
VERTEX
  8
1
  5
1CD
  6
CONTINUOUS
 62
3
 10
43.5944
 20
-100.4362
 30
0.0
  0
VERTEX
  8
1
  5
1CE
  6
CONTINUOUS
 62
3
 10
43.5944
 20
-107.4467
 30
0.0
  0
VERTEX
  8
1
  5
1CF
  6
CONTINUOUS
 62
3
 10
16.548
 20
-107.4467
 30
0.0
  0
SEQEND
  8
1
  5
1D0
  0
TEXT
  8
6
  5
1D2
  6
CONTINUOUS
 62
3
 10
26.2795
 20
-108.2748
 30
0.0
  1
BELLYPAN SIDE VIEW
 40
0.5006
 41
1.0
  7
STANDARD
 72
4
 11
30.4713
 21
-108.0245
 31
0.0
  0
LINE
  8
4
  5
1D4
  6
CENTER
 62
1
 10
-9.8179
 20
-87.0449
 30
0.0
 11
-0.6319
 21
-87.0449
 31
0.0
  0
TEXT
  8
4
  5
1D6
  6
CONTINUOUS
 62
2
 10
-6.9952
 20
-87.183
 30
0.0
  1
R-10
 40
0.2765
 41
1.0
  7
STANDARD
  0
LINE
  8
4
  5
1D8
  6
CONTINUOUS
 62
2
 10
-0.6319
 20
-87.9664
 30
0.0
 11
-0.6319
 21
-86.8444
 31
0.0
  0
LINE
  8
4
  5
1DA
  6
CENTER
 62
1
 10
-9.3015
 20
-84.6622
 30
0.0
 11
-1.148
 21
-84.6622
 31
0.0
  0
LINE
  8
4
  5
1DC
  6
CONTINUOUS
 62
2
 10
-1.148
 20
-85.5837
 30
0.0
 11
-1.148
 21
-84.4672
 31
0.0
  0
TEXT
  8
4
  5
1DE
  6
CONTINUOUS
 62
2
 10
-6.731
 20
-84.7979
 30
0.0
  1
R-11
 40
0.2765
 41
1.0
  7
STANDARD
  0
LINE
  8
4
  5
1E0
  6
CENTER
 62
1
 10
-8.7853
 20
-82.0589
 30
0.0
 11
-1.6643
 21
-82.0589
 31
0.0
  0
LINE
  8
4
  5
1E2
  6
CONTINUOUS
 62
2
 10
-1.6643
 20
-82.9805
 30
0.0
 11
-1.6643
 21
-81.87
 31
0.0
  0
TEXT
  8
4
  5
1E4
  6
CONTINUOUS
 62
2
 10
-6.687
 20
-82.1716
 30
0.0
  1
R-12
 40
0.2765
 41
1.0
  7
STANDARD
  0
LINE
  8
4
  5
1E6
  6
CONTINUOUS
 62
2
 10
-8.7853
 20
-82.9805
 30
0.0
 11
-8.7853
 21
-81.8234
 31
0.0
  0
LINE
  8
4
  5
1E8
  6
CONTINUOUS
 62
2
 10
-9.3015
 20
-85.5837
 30
0.0
 11
-9.3015
 21
-84.403
 31
0.0
  0
LINE
  8
4
  5
1EA
  6
CONTINUOUS
 62
2
 10
-9.8179
 20
-87.9664
 30
0.0
 11
-9.8179
 21
-86.7623
 31
0.0
  0
LINE
  8
4
  5
1EC
  6
CENTER
 62
1
 10
-10.334
 20
-89.2806
 30
0.0
 11
-0.1157
 21
-89.2806
 31
0.0
  0
TEXT
  8
4
  5
1EE
  6
CONTINUOUS
 62
2
 10
-7.0869
 20
-89.4563
 30
0.0
  1
R-9
 40
0.3238
 41
1.0
  7
STANDARD
  0
LINE
  8
4
  5
1F0
  6
CONTINUOUS
 62
2
 10
-0.1157
 20
-90.2021
 30
0.0
 11
-0.1157
 21
-89.0749
 31
0.0
  0
LINE
  8
4
  5
1F2
  6
CONTINUOUS
 62
2
 10
-10.334
 20
-90.2021
 30
0.0
 11
-10.334
 21
-88.9747
 31
0.0
  0
LINE
  8
4
  5
1F4
  6
CONTINUOUS
 62
2
 10
-5.8424
 20
-88.9917
 30
0.0
 11
-6.2175
 21
-88.9917
 31
0.0
  0
LINE
  8
4
  5
1F6
  6
CONTINUOUS
 62
2
 10
-5.8424
 20
-89.5695
 30
0.0
 11
-6.2175
 21
-89.5695
 31
0.0
  0
LINE
  8
4
  5
1F8
  6
CONTINUOUS
 62
2
 10
-5.8424
 20
-89.9443
 30
0.0
 11
-5.8424
 21
-89.5695
 31
0.0
  0
LINE
  8
4
  5
1FA
  6
CONTINUOUS
 62
2
 10
-5.8424
 20
-88.9917
 30
0.0
 11
-5.8424
 21
-88.6167
 31
0.0
  0
LINE
  8
4
  5
1FC
  6
CONTINUOUS
 62
2
 10
-6.2175
 20
-89.9597
 30
0.0
 11
-6.2175
 21
-89.5695
 31
0.0
  0
LINE
  8
4
  5
1FE
  6
CONTINUOUS
 62
2
 10
-6.2175
 20
-88.9917
 30
0.0
 11
-6.2175
 21
-88.6014
 31
0.0
  0
LINE
  8
4
  5
200
  6
CONTINUOUS
 62
2
 10
-6.0454
 20
-87.6625
 30
0.0
 11
-6.0454
 21
-87.2715
 31
0.0
  0
LINE
  8
4
  5
202
  6
CONTINUOUS
 62
2
 10
-6.0454
 20
-86.8184
 30
0.0
 11
-6.0454
 21
-86.4273
 31
0.0
  0
LINE
  8
4
  5
204
  6
CONTINUOUS
 62
2
 10
-5.6703
 20
-87.6462
 30
0.0
 11
-5.6703
 21
-87.2715
 31
0.0
  0
LINE
  8
4
  5
206
  6
CONTINUOUS
 62
2
 10
-5.6703
 20
-86.8184
 30
0.0
 11
-5.6703
 21
-86.4435
 31
0.0
  0
LINE
  8
4
  5
208
  6
CONTINUOUS
 62
2
 10
-5.8734
 20
-85.2182
 30
0.0
 11
-5.8734
 21
-84.8262
 31
0.0
  0
LINE
  8
4
  5
20A
  6
CONTINUOUS
 62
2
 10
-5.8734
 20
-84.4983
 30
0.0
 11
-5.8734
 21
-84.1061
 31
0.0
  0
LINE
  8
4
  5
20C
  6
CONTINUOUS
 62
2
 10
-5.4982
 20
-85.2011
 30
0.0
 11
-5.4982
 21
-84.8262
 31
0.0
  0
LINE
  8
4
  5
20E
  6
CONTINUOUS
 62
2
 10
-5.4982
 20
-84.4983
 30
0.0
 11
-5.4982
 21
-84.1234
 31
0.0
  0
LINE
  8
4
  5
210
  6
CONTINUOUS
 62
2
 10
-5.7013
 20
-82.5534
 30
0.0
 11
-5.7013
 21
-82.1602
 31
0.0
  0
LINE
  8
4
  5
212
  6
CONTINUOUS
 62
2
 10
-5.7013
 20
-81.9579
 30
0.0
 11
-5.7013
 21
-81.5646
 31
0.0
  0
LINE
  8
4
  5
214
  6
CONTINUOUS
 62
2
 10
-5.3263
 20
-82.535
 30
0.0
 11
-5.3263
 21
-82.1602
 31
0.0
  0
LINE
  8
4
  5
216
  6
CONTINUOUS
 62
2
 10
-5.3263
 20
-81.9579
 30
0.0
 11
-5.3263
 21
-81.5829
 31
0.0
  0
LINE
  8
4
  5
218
  6
CONTINUOUS
 62
2
 10
-1.096
 20
-89.5801
 30
0.0
 11
-0.5387
 21
-90.2021
 31
0.0
  0
LINE
  8
4
  5
21A
  6
CONTINUOUS
 62
2
 10
-9.5521
 20
-89.735
 30
0.0
 11
-9.7853
 21
-90.2021
 31
0.0
  0
LINE
  8
4
  5
21C
  6
CONTINUOUS
 62
2
 10
-2.576
 20
-82.3301
 30
0.0
 11
-2.1426
 21
-82.9805
 31
0.0
  0
LINE
  8
4
  5
21E
  6
CONTINUOUS
 62
2
 10
-1.872
 20
-84.9245
 30
0.0
 11
-1.5426
 21
-85.5837
 31
0.0
  0
LINE
  8
4
  5
220
  6
CONTINUOUS
 62
2
 10
-1.4734
 20
-87.3249
 30
0.0
 11
-1.0888
 21
-87.9664
 31
0.0
  0
LINE
  8
4
  5
222
  6
CONTINUOUS
 62
2
 10
-8.6974
 20
-85.0339
 30
0.0
 11
-8.8721
 21
-85.5837
 31
0.0
  0
LINE
  8
4
  5
224
  6
CONTINUOUS
 62
2
 10
-8.0174
 20
-82.4282
 30
0.0
 11
-8.2383
 21
-82.9805
 31
0.0
  0
LINE
  8
4
  5
226
  6
CONTINUOUS
 62
2
 10
-9.0383
 20
-87.472
 30
0.0
 11
-9.236
 21
-87.9664
 31
0.0
  0
LINE
  8
4
  5
228
  6
CONTINUOUS
 62
2
 10
-8.7853
 20
-82.9805
 30
0.0
 11
-8.2383
 21
-82.9805
 31
0.0
  0
LINE
  8
4
  5
22A
  6
CONTINUOUS
 62
2
 10
-2.1426
 20
-82.9805
 30
0.0
 11
-1.6643
 21
-82.9805
 31
0.0
  0
LINE
  8
4
  5
22C
  6
CONTINUOUS
 62
2
 10
-9.3015
 20
-85.5837
 30
0.0
 11
-8.8721
 21
-85.5837
 31
0.0
  0
LINE
  8
4
  5
22E
  6
CONTINUOUS
 62
2
 10
-1.5426
 20
-85.5837
 30
0.0
 11
-1.148
 21
-85.5837
 31
0.0
  0
LINE
  8
4
  5
230
  6
CONTINUOUS
 62
2
 10
-9.8179
 20
-87.9664
 30
0.0
 11
-9.236
 21
-87.9664
 31
0.0
  0
LINE
  8
4
  5
232
  6
CONTINUOUS
 62
2
 10
-1.0888
 20
-87.9664
 30
0.0
 11
-0.6319
 21
-87.9664
 31
0.0
  0
LINE
  8
4
  5
234
  6
CONTINUOUS
 62
2
 10
-10.334
 20
-90.2021
 30
0.0
 11
-9.7853
 21
-90.2021
 31
0.0
  0
LINE
  8
4
  5
236
  6
CONTINUOUS
 62
2
 10
-0.5387
 20
-90.2021
 30
0.0
 11
-0.1157
 21
-90.2021
 31
0.0
  0
LINE
  8
4
  5
238
  6
CONTINUOUS
 62
2
 10
-5.3263
 20
-81.9579
 30
0.0
 11
-5.7013
 21
-81.9579
 31
0.0
  0
LINE
  8
4
  5
23A
  6
CONTINUOUS
 62
2
 10
-5.3263
 20
-82.1602
 30
0.0
 11
-5.7013
 21
-82.1602
 31
0.0
  0
LINE
  8
4
  5
23C
  6
CONTINUOUS
 62
2
 10
-5.4982
 20
-84.4983
 30
0.0
 11
-5.8734
 21
-84.4983
 31
0.0
  0
LINE
  8
4
  5
23E
  6
CONTINUOUS
 62
2
 10
-5.4982
 20
-84.8262
 30
0.0
 11
-5.8734
 21
-84.8262
 31
0.0
  0
LINE
  8
4
  5
240
  6
CONTINUOUS
 62
2
 10
-5.6703
 20
-86.8184
 30
0.0
 11
-6.0454
 21
-86.8184
 31
0.0
  0
LINE
  8
4
  5
242
  6
CONTINUOUS
 62
2
 10
-5.6703
 20
-87.2715
 30
0.0
 11
-6.0454
 21
-87.2715
 31
0.0
  0
ARC
  8
4
  5
244
  6
CONTINUOUS
 62
2
 10
-12.506957
 20
-197.138831
 30
0.0
 40
115.777685
 50
84.6306722222
 51
86.3624333333
  0
ARC
  8
4
  5
246
  6
CONTINUOUS
 62
2
 10
-6.154605
 20
-94.669571
 30
0.0
 40
13.11283
 50
85.6613361111
 51
86.3782333333
  0
ARC
  8
4
  5
248
  6
CONTINUOUS
 62
2
 10
-6.154605
 20
-69.448327
 30
0.0
 40
13.11283
 50
273.6217666667
 51
274.3386638889
  0
ARC
  8
4
  5
24A
  6
CONTINUOUS
 62
2
 10
-12.506957
 20
33.020933
 30
0.0
 40
115.777685
 50
273.6375666667
 51
275.3693277778
  0
ARC
  8
4
  5
24C
  6
CONTINUOUS
 62
2
 10
-13.355917
 20
42.303584
 30
0.0
 40
127.745279
 50
273.6375666667
 51
275.4797638889
  0
ARC
  8
4
  5
24E
  6
CONTINUOUS
 62
2
 10
-6.347473
 20
-70.749047
 30
0.0
 40
14.47685
 50
273.3629638889
 51
274.3386638889
  0
ARC
  8
4
  5
250
  6
CONTINUOUS
 62
2
 10
-13.355917
 20
-211.627858
 30
0.0
 40
127.745279
 50
84.5162083333
 51
86.3624333333
  0
ARC
  8
4
  5
252
  6
CONTINUOUS
 62
2
 10
-6.347473
 20
-98.575227
 30
0.0
 40
14.47685
 50
85.6613361111
 51
86.6370361111
  0
ARC
  8
4
  5
254
  6
CONTINUOUS
 62
2
 10
-6.54046
 20
-102.260501
 30
0.0
 40
15.841003
 50
85.6613361111
 51
86.8512944444
  0
ARC
  8
4
  5
256
  6
CONTINUOUS
 62
2
 10
-6.54046
 20
-71.829134
 30
0.0
 40
15.841003
 50
273.1487055556
 51
274.3386638889
  0
ARC
  8
4
  5
258
  6
CONTINUOUS
 62
2
 10
-14.20506
 20
-225.897529
 30
0.0
 40
139.714031
 50
84.4287
 51
86.3624333333
  0
ARC
  8
4
  5
25A
  6
CONTINUOUS
 62
2
 10
-14.20506
 20
51.807894
 30
0.0
 40
139.714031
 50
273.6375666667
 51
275.5713
  0
ARC
  8
4
  5
25C
  6
CONTINUOUS
 62
2
 10
-15.05402
 20
-240.019043
 30
0.0
 40
151.681625
 50
84.3515805556
 51
86.3624333333
  0
ARC
  8
4
  5
25E
  6
CONTINUOUS
 62
2
 10
-15.05402
 20
61.458058
 30
0.0
 40
151.681625
 50
273.6375666667
 51
275.6484194444
  0
ARC
  8
4
  5
260
  6
CONTINUOUS
 62
2
 10
-6.733328
 20
-72.762341
 30
0.0
 40
17.205024
 50
272.9680861111
 51
274.3386638889
  0
ARC
  8
4
  5
262
  6
CONTINUOUS
 62
2
 10
-6.733328
 20
-105.798644
 30
0.0
 40
17.205024
 50
85.6613361111
 51
87.0319138889
  0
ARC
  8
4
  5
264
  6
CONTINUOUS
 62
2
 10
-9.53454
 20
-87.57128
 30
0.0
 40
0.850097
 50
103.1277861111
 51
109.4654666667
  0
ARC
  8
4
  5
266
  6
CONTINUOUS
 62
2
 10
-9.53454
 20
-86.518355
 30
0.0
 40
0.850097
 50
250.5345333333
 51
256.8722138889
  0
ARC
  8
4
  5
268
  6
CONTINUOUS
 62
2
 10
-9.983702
 20
-89.852021
 30
0.0
 40
0.930891
 50
103.1277861111
 51
112.1077472222
  0
ARC
  8
4
  5
26A
  6
CONTINUOUS
 62
2
 10
-9.983702
 20
-88.708965
 30
0.0
 40
0.930891
 50
247.8922527778
 51
256.8722138889
  0
LINE
  8
4
  5
26C
  6
CENTER
 62
1
 10
-8.2979
 20
-79.8786
 30
0.0
 11
-2.2093
 21
-79.8786
 31
0.0
  0
LINE
  8
4
  5
26E
  6
CONTINUOUS
 62
2
 10
-2.2093
 20
-80.8016
 30
0.0
 11
-2.2093
 21
-79.6961
 31
0.0
  0
LINE
  8
4
  5
270
  6
CONTINUOUS
 62
2
 10
-8.2979
 20
-80.1861
 30
0.0
 11
-8.2979
 21
-79.6668
 31
0.0
  0
LINE
  8
4
  5
272
  6
CONTINUOUS
 62
2
 10
-8.2979
 20
-80.1861
 30
0.0
 11
-8.2979
 21
-80.8016
 31
0.0
  0
LINE
  8
4
  5
274
  6
CONTINUOUS
 62
2
 10
-7.4236
 20
-80.2316
 30
0.0
 11
-7.6662
 21
-80.8016
 31
0.0
  0
LINE
  8
4
  5
276
  6
CONTINUOUS
 62
2
 10
-8.2846
 20
-80.8029
 30
0.0
 11
-7.6614
 21
-80.8029
 31
0.0
  0
ARC
  8
4
  5
278
  6
CONTINUOUS
 62
2
 10
-11.686795
 20
23.315429
 30
0.0
 40
103.810091
 50
273.6375666667
 51
275.2381888889
  0
ARC
  8
4
  5
27A
  6
CONTINUOUS
 62
2
 10
-11.686795
 20
-183.072657
 30
0.0
 40
103.810091
 50
84.7618111111
 51
86.3624333333
  0
LINE
  8
4
  5
27C
  6
CONTINUOUS
 62
2
 10
-2.916
 20
-80.1236
 30
0.0
 11
-2.535
 21
-80.8016
 31
0.0
  0
LINE
  8
4
  5
27E
  6
CONTINUOUS
 62
2
 10
-2.535
 20
-80.8016
 30
0.0
 11
-2.2093
 21
-80.8016
 31
0.0
  0
LINE
  8
4
  5
280
  6
CONTINUOUS
 62
2
 10
-5.1632
 20
-79.8426
 30
0.0
 11
-5.5382
 21
-79.8426
 31
0.0
  0
LINE
  8
4
  5
282
  6
CONTINUOUS
 62
2
 10
-5.1632
 20
-79.9145
 30
0.0
 11
-5.5382
 21
-79.9145
 31
0.0
  0
LINE
  8
4
  5
284
  6
CONTINUOUS
 62
2
 10
-5.1632
 20
-80.2901
 30
0.0
 11
-5.1632
 21
-79.9145
 31
0.0
  0
LINE
  8
4
  5
286
  6
CONTINUOUS
 62
2
 10
-5.1632
 20
-79.8426
 30
0.0
 11
-5.1632
 21
-79.4671
 31
0.0
  0
LINE
  8
4
  5
288
  6
CONTINUOUS
 62
2
 10
-5.5382
 20
-80.3106
 30
0.0
 11
-5.5382
 21
-79.9145
 31
0.0
  0
LINE
  8
4
  5
28A
  6
CONTINUOUS
 62
2
 10
-5.5382
 20
-79.8426
 30
0.0
 11
-5.5382
 21
-79.4467
 31
0.0
  0
TEXT
  8
4
  5
28C
  6
CONTINUOUS
 62
2
 10
-6.6911
 20
-80.0018
 30
0.0
  1
R-13
 40
0.2765
 41
1.0
  7
STANDARD
  0
LINE
  8
4
  5
28E
  6
CENTER
 62
1
 10
-10.9643
 20
-97.4294
 30
0.0
 11
1.6375
 21
-97.4294
 31
0.0
  0
LINE
  8
4
  5
290
  6
CONTINUOUS
 62
2
 10
1.6375
 20
-98.352
 30
0.0
 11
1.6375
 21
-97.2124
 31
0.0
  0
TEXT
  8
4
  5
292
  6
CONTINUOUS
 62
2
 10
-8.31
 20
-97.6631
 30
0.0
  1
R-6
 40
0.4335
 41
1.0
  7
STANDARD
  0
LINE
  8
4
  5
294
  6
CONTINUOUS
 62
2
 10
-10.9643
 20
-98.352
 30
0.0
 11
-10.9643
 21
-97.07
 31
0.0
  0
LINE
  8
4
  5
296
  6
CENTER
 62
1
 10
-10.7536
 20
-94.5367
 30
0.0
 11
1.5297
 21
-94.5367
 31
0.0
  0
LINE
  8
4
  5
298
  6
CONTINUOUS
 62
253
 10
1.5297
 20
-95.4583
 30
0.0
 11
1.5297
 21
-94.3213
 31
0.0
  0
TEXT
  8
4
  5
29A
  6
CONTINUOUS
 62
2
 10
-8.2198
 20
-94.7722
 30
0.0
  1
R-7
 40
0.4335
 41
1.0
  7
STANDARD
  0
LINE
  8
4
  5
29C
  6
CONTINUOUS
 62
2
 10
-10.7536
 20
-95.4583
 30
0.0
 11
-10.7536
 21
-94.1847
 31
0.0
  0
LINE
  8
4
  5
29E
  6
CENTER
 62
1
 10
-10.4986
 20
-91.9841
 30
0.0
 11
0.7521
 21
-91.9841
 31
0.0
  0
TEXT
  8
4
  5
2A0
  6
CONTINUOUS
 62
2
 10
-6.1638
 20
-92.1458
 30
0.0
  1
R-8
 40
0.3238
 41
1.0
  7
STANDARD
  0
LINE
  8
4
  5
2A2
  6
CONTINUOUS
 62
2
 10
0.7521
 20
-92.9056
 30
0.0
 11
0.7521
 21
-91.7733
 31
0.0
  0
LINE
  8
4
  5
2A4
  6
CONTINUOUS
 62
2
 10
-10.4986
 20
-92.9056
 30
0.0
 11
-10.4986
 21
-91.6791
 31
0.0
  0
LINE
  8
4
  5
2A6
  6
CONTINUOUS
 62
2
 10
-5.6734
 20
-96.9973
 30
0.0
 11
-6.0484
 21
-96.9973
 31
0.0
  0
LINE
  8
4
  5
2A8
  6
CONTINUOUS
 62
2
 10
-5.6734
 20
-97.8615
 30
0.0
 11
-6.0484
 21
-97.8615
 31
0.0
  0
LINE
  8
4
  5
2AA
  6
CONTINUOUS
 62
2
 10
-5.6734
 20
-96.6222
 30
0.0
 11
-5.6734
 21
-96.9973
 31
0.0
  0
LINE
  8
4
  5
2AC
  6
CONTINUOUS
 62
2
 10
-5.6734
 20
-97.8615
 30
0.0
 11
-5.6734
 21
-98.2364
 31
0.0
  0
LINE
  8
4
  5
2AE
  6
CONTINUOUS
 62
2
 10
-6.0484
 20
-96.6084
 30
0.0
 11
-6.0484
 21
-96.9973
 31
0.0
  0
LINE
  8
4
  5
2B0
  6
CONTINUOUS
 62
2
 10
-6.0484
 20
-97.8615
 30
0.0
 11
-6.0484
 21
-98.2503
 31
0.0
  0
LINE
  8
4
  5
2B2
  6
CONTINUOUS
 62
2
 10
-5.5736
 20
-94.1237
 30
0.0
 11
-5.9487
 21
-94.1237
 31
0.0
  0
LINE
  8
4
  5
2B4
  6
CONTINUOUS
 62
2
 10
-5.5736
 20
-94.9502
 30
0.0
 11
-5.9487
 21
-94.9502
 31
0.0
  0
LINE
  8
4
  5
2B6
  6
CONTINUOUS
 62
2
 10
-5.5736
 20
-95.3249
 30
0.0
 11
-5.5736
 21
-94.9502
 31
0.0
  0
LINE
  8
4
  5
2B8
  6
CONTINUOUS
 62
2
 10
-5.5736
 20
-94.1237
 30
0.0
 11
-5.5736
 21
-93.7486
 31
0.0
  0
LINE
  8
4
  5
2BA
  6
CONTINUOUS
 62
2
 10
-5.9487
 20
-95.3389
 30
0.0
 11
-5.9487
 21
-94.9502
 31
0.0
  0
LINE
  8
4
  5
2BC
  6
CONTINUOUS
 62
2
 10
-5.9487
 20
-94.1237
 30
0.0
 11
-5.9487
 21
-93.7345
 31
0.0
  0
LINE
  8
4
  5
2BE
  6
CONTINUOUS
 62
2
 10
-5.6629
 20
-91.633
 30
0.0
 11
-6.0378
 21
-91.633
 31
0.0
  0
LINE
  8
4
  5
2C0
  6
CONTINUOUS
 62
2
 10
-6.0378
 20
-92.7247
 30
0.0
 11
-6.0378
 21
-92.3352
 31
0.0
  0
LINE
  8
4
  5
2C2
  6
CONTINUOUS
 62
2
 10
-6.0378
 20
-91.633
 30
0.0
 11
-6.0378
 21
-91.2433
 31
0.0
  0
LINE
  8
4
  5
2C4
  6
CONTINUOUS
 62
2
 10
-5.6629
 20
-92.71
 30
0.0
 11
-5.6629
 21
-92.3352
 31
0.0
  0
LINE
  8
4
  5
2C6
  6
CONTINUOUS
 62
2
 10
-5.6629
 20
-91.633
 30
0.0
 11
-5.6629
 21
-91.258
 31
0.0
  0
LINE
  8
4
  5
2C8
  6
CONTINUOUS
 62
2
 10
-0.0966
 20
-92.2775
 30
0.0
 11
0.2521
 21
-92.9056
 31
0.0
  0
LINE
  8
4
  5
2CA
  6
CONTINUOUS
 62
2
 10
0.7073
 20
-94.8336
 30
0.0
 11
1.0434
 21
-95.4583
 31
0.0
  0
LINE
  8
4
  5
2CC
  6
CONTINUOUS
 62
2
 10
-9.678
 20
-92.4714
 30
0.0
 11
-9.8781
 21
-92.9056
 31
0.0
  0
LINE
  8
4
  5
2CE
  6
CONTINUOUS
 62
2
 10
-9.9571
 20
-95.0459
 30
0.0
 11
-10.1542
 21
-95.4583
 31
0.0
  0
LINE
  8
4
  5
2D0
  6
CONTINUOUS
 62
2
 10
0.8098
 20
-97.7281
 30
0.0
 11
1.1516
 21
-98.352
 31
0.0
  0
LINE
  8
4
  5
2D2
  6
CONTINUOUS
 62
2
 10
-10.1989
 20
-97.9405
 30
0.0
 11
-10.3887
 21
-98.352
 31
0.0
  0
LINE
  8
4
  5
2D4
  6
CONTINUOUS
 62
2
 10
-10.4986
 20
-92.9056
 30
0.0
 11
-9.8781
 21
-92.9056
 31
0.0
  0
LINE
  8
4
  5
2D6
  6
CONTINUOUS
 62
2
 10
0.2521
 20
-92.9056
 30
0.0
 11
0.7521
 21
-92.9056
 31
0.0
  0
LINE
  8
4
  5
2D8
  6
CONTINUOUS
 62
2
 10
-10.7536
 20
-95.4583
 30
0.0
 11
-10.1542
 21
-95.4583
 31
0.0
  0
LINE
  8
4
  5
2DA
  6
CONTINUOUS
 62
2
 10
1.0434
 20
-95.4583
 30
0.0
 11
1.5297
 21
-95.4583
 31
0.0
  0
LINE
  8
4
  5
2DC
  6
CONTINUOUS
 62
2
 10
-10.3887
 20
-98.352
 30
0.0
 11
-10.9643
 21
-98.352
 31
0.0
  0
LINE
  8
4
  5
2DE
  6
CONTINUOUS
 62
2
 10
1.1516
 20
-98.352
 30
0.0
 11
1.6375
 21
-98.352
 31
0.0
  0
ARC
  8
4
  5
2E0
  6
CONTINUOUS
 62
2
 10
-16.452414
 20
-275.607483
 30
0.0
 40
179.310028
 50
84.2098
 51
86.3624333333
  0
ARC
  8
4
  5
2E2
  6
CONTINUOUS
 62
2
 10
-6.617066
 20
-116.954299
 30
0.0
 40
20.354003
 50
85.6613361111
 51
87.3424888889
  0
ARC
  8
4
  5
2E4
  6
CONTINUOUS
 62
2
 10
-6.617066
 20
-116.954299
 30
0.0
 40
20.354003
 50
88.3990388889
 51
101.6158694444
  0
ARC
  8
4
  5
2E6
  6
CONTINUOUS
 62
2
 10
-10.459121
 20
-98.104835
 30
0.0
 40
1.117412
 50
103.1277861111
 51
116.8810305556
  0
ARC
  8
4
  5
2E8
  6
CONTINUOUS
 62
2
 10
-16.452414
 20
80.748946
 30
0.0
 40
179.310028
 50
273.6375666667
 51
275.7902
  0
ARC
  8
4
  5
2EA
  6
CONTINUOUS
 62
2
 10
-10.459121
 20
-96.753702
 30
0.0
 40
1.117412
 50
243.1189694444
 51
256.8722138889
  0
ARC
  8
4
  5
2EC
  6
CONTINUOUS
 62
2
 10
-6.617066
 20
-77.904238
 30
0.0
 40
20.354003
 50
258.3841305556
 51
271.6009611111
  0
ARC
  8
4
  5
2EE
  6
CONTINUOUS
 62
2
 10
-6.617066
 20
-77.904238
 30
0.0
 40
20.354003
 50
272.6575111111
 51
274.3386638889
  0
ARC
  8
4
  5
2F0
  6
CONTINUOUS
 62
2
 10
-16.139013
 20
79.973458
 30
0.0
 40
175.616812
 50
273.6375666667
 51
275.7742555556
  0
ARC
  8
4
  5
2F2
  6
CONTINUOUS
 62
2
 10
-16.139013
 20
-269.046999
 30
0.0
 40
175.616812
 50
84.2257444444
 51
86.3624333333
  0
ARC
  8
4
  5
2F4
  6
CONTINUOUS
 62
2
 10
-6.506136
 20
-113.659857
 30
0.0
 40
19.933065
 50
85.6613361111
 51
87.3187361111
  0
ARC
  8
4
  5
2F6
  6
CONTINUOUS
 62
2
 10
-6.506136
 20
-75.413683
 30
0.0
 40
19.933065
 50
272.6812638889
 51
274.3386638889
  0
ARC
  8
4
  5
2F8
  6
CONTINUOUS
 62
2
 10
-6.506136
 20
-75.413683
 30
0.0
 40
19.933065
 50
258.3841305556
 51
271.6025861111
  0
ARC
  8
4
  5
2FA
  6
CONTINUOUS
 62
2
 10
-6.506136
 20
-113.659857
 30
0.0
 40
19.933065
 50
88.3974138889
 51
101.6158694444
  0
ARC
  8
4
  5
2FC
  6
CONTINUOUS
 62
2
 10
-10.269098
 20
-95.198429
 30
0.0
 40
1.092479
 50
103.1277861111
 51
116.3236916667
  0
ARC
  8
4
  5
2FE
  6
CONTINUOUS
 62
2
 10
-10.269098
 20
-93.875111
 30
0.0
 40
1.092479
 50
243.6763083333
 51
256.8722138889
  0
ARC
  8
4
  5
300
  6
CONTINUOUS
 62
2
 10
-10.081253
 20
-91.367391
 30
0.0
 40
1.011685
 50
245.6333222222
 51
256.8722138889
  0
ARC
  8
4
  5
302
  6
CONTINUOUS
 62
2
 10
-6.574584
 20
-74.163365
 30
0.0
 40
18.569044
 50
258.3841305556
 51
271.6561833333
  0
ARC
  8
4
  5
304
  6
CONTINUOUS
 62
2
 10
-15.551369
 20
70.640405
 30
0.0
 40
163.649219
 50
273.6375666667
 51
275.7175583333
  0
ARC
  8
4
  5
306
  6
CONTINUOUS
 62
2
 10
-6.574584
 20
-74.163365
 30
0.0
 40
18.569044
 50
272.8141722222
 51
274.3386638889
  0
ARC
  8
4
  5
308
  6
CONTINUOUS
 62
2
 10
-10.081253
 20
-92.600578
 30
0.0
 40
1.011685
 50
103.1277861111
 51
114.3666777778
  0
ARC
  8
4
  5
30A
  6
CONTINUOUS
 62
2
 10
-6.574584
 20
-109.804603
 30
0.0
 40
18.569044
 50
85.6613361111
 51
87.1858277778
  0
ARC
  8
4
  5
30C
  6
CONTINUOUS
 62
2
 10
-15.551369
 20
-254.608374
 30
0.0
 40
163.649219
 50
84.2824416667
 51
86.3624333333
  0
CIRCLE
  8
4
  5
30E
  6
HIDDEN
 62
253
 10
-6.773005
 20
-97.429277
 30
0.0
 40
0.343812
  0
CIRCLE
  8
4
  5
310
  6
HIDDEN
 62
253
 10
-6.721512
 20
-94.536779
 30
0.0
 40
0.343812
  0
LINE
  8
4
  5
312
  6
HIDDEN
 62
46
 10
-10.4637
 20
-94.5367
 30
0.0
 11
-10.2138
 21
-94.5367
 31
0.0
  0
CIRCLE
  8
4
  5
314
  6
HIDDEN
 62
253
 10
-10.338735
 20
-94.536779
 30
0.0
 40
0.125004
  0
LINE
  8
4
  5
316
  6
HIDDEN
 62
46
 10
1.1039
 20
-94.5367
 30
0.0
 11
1.3539
 21
-94.5367
 31
0.0
  0
CIRCLE
  8
4
  5
318
  6
HIDDEN
 62
253
 10
1.228858
 20
-94.536779
 30
0.0
 40
0.125004
  0
CIRCLE
  8
4
  5
31A
  6
HIDDEN
 62
253
 10
-10.390228
 20
-97.429277
 30
0.0
 40
0.125004
  0
LINE
  8
4
  5
31C
  6
HIDDEN
 62
46
 10
1.0523
 20
-97.4294
 30
0.0
 11
1.3023
 21
-97.4294
 31
0.0
  0
CIRCLE
  8
4
  5
31E
  6
HIDDEN
 62
253
 10
1.177366
 20
-97.429277
 30
0.0
 40
0.125004
  0
CIRCLE
  8
4
  5
320
  6
HIDDEN
 62
253
 10
-6.980329
 20
-91.982792
 30
0.0
 40
0.341153
  0
LINE
  8
4
  5
322
  6
HIDDEN
 62
253
 10
-6.7214
 20
-94.1929
 30
0.0
 11
-6.7214
 21
-94.8806
 31
0.0
  0
LINE
  8
4
  5
324
  6
HIDDEN
 62
253
 10
-6.9803
 20
-91.6417
 30
0.0
 11
-6.9803
 21
-92.3239
 31
0.0
  0
LINE
  8
4
  5
326
  6
HIDDEN
 62
253
 10
-10.3387
 20
-94.4118
 30
0.0
 11
-10.3387
 21
-94.6618
 31
0.0
  0
LINE
  8
4
  5
328
  6
HIDDEN
 62
253
 10
1.2289
 20
-94.4118
 30
0.0
 11
1.2289
 21
-94.5367
 31
0.0
  0
LINE
  8
4
  5
32A
  6
HIDDEN
 62
253
 10
1.2289
 20
-94.5367
 30
0.0
 11
1.2289
 21
-94.6618
 31
0.0
  0
LINE
  8
4
  5
32C
  6
HIDDEN
 62
253
 10
-6.773
 20
-97.0856
 30
0.0
 11
-6.773
 21
-97.7732
 31
0.0
  0
LINE
  8
4
  5
32E
  6
HIDDEN
 62
253
 10
-10.3901
 20
-97.3044
 30
0.0
 11
-10.3901
 21
-97.5543
 31
0.0
  0
LINE
  8
4
  5
330
  6
HIDDEN
 62
253
 10
1.1773
 20
-97.3044
 30
0.0
 11
1.1773
 21
-97.5543
 31
0.0
  0
POLYLINE
  8
1
  5
332
  6
CONTINUOUS
 62
3
 10
0.0
 20
0.0
 30
0.0
 66
1
 70
1
  0
VERTEX
  8
1
  5
333
  6
CONTINUOUS
 62
3
 10
-14.4618
 20
-78.8116
 30
0.0
  0
VERTEX
  8
1
  5
334
  6
CONTINUOUS
 62
3
 10
3.5434
 20
-78.8116
 30
0.0
  0
VERTEX
  8
1
  5
335
  6
CONTINUOUS
 62
3
 10
3.5434
 20
-98.9261
 30
0.0
  0
VERTEX
  8
1
  5
336
  6
CONTINUOUS
 62
3
 10
-14.4618
 20
-98.9261
 30
0.0
  0
SEQEND
  8
1
  5
337
  0
TEXT
  8
6
  5
339
  6
CONTINUOUS
 62
3
 10
-10.1645
 20
-99.7334
 30
0.0
  1
OUTER WING PANEL RIBS
 40
0.5006
 41
1.0
  7
STANDARD
 72
4
 11
-5.2219
 21
-99.4831
 31
0.0
  0
TEXT
  8
6
  5
33B
  6
CONTINUOUS
 62
3
 10
-7.8292
 20
-100.6782
 30
0.0
  1
(3/32" BALSA)
 40
0.5006
 41
1.0
  7
STANDARD
 72
4
 11
-5.222
 21
-100.4279
 31
0.0
  0
ARC
  8
4
  5
33D
  6
CONTINUOUS
 62
2
 10
-5.990535
 20
-91.186769
 30
0.0
 40
11.748809
 50
87.7938166667
 51
101.3261055556
  0
ARC
  8
4
  5
33F
  6
CONTINUOUS
 62
2
 10
-5.990535
 20
-91.186769
 30
0.0
 40
11.748809
 50
85.6613361111
 51
85.9619111111
  0
ARC
  8
4
  5
341
  6
CONTINUOUS
 62
2
 10
-5.990535
 20
-68.570459
 30
0.0
 40
11.748809
 50
258.6738944444
 51
272.2061833333
  0
ARC
  8
4
  5
343
  6
CONTINUOUS
 62
2
 10
-5.990535
 20
-68.570459
 30
0.0
 40
11.748809
 50
274.0380888889
 51
274.3386638889
  0
ARC
  8
4
  5
345
  6
CONTINUOUS
 62
2
 10
-6.154605
 20
-94.669571
 30
0.0
 40
13.11283
 50
88.0188
 51
101.5731694444
  0
ARC
  8
4
  5
347
  6
CONTINUOUS
 62
2
 10
-6.154605
 20
-69.448327
 30
0.0
 40
13.11283
 50
258.4268305556
 51
271.9812
  0
ARC
  8
4
  5
349
  6
CONTINUOUS
 62
2
 10
-6.347473
 20
-98.575227
 30
0.0
 40
14.47685
 50
88.1230583333
 51
101.774025
  0
ARC
  8
4
  5
34B
  6
CONTINUOUS
 62
2
 10
-6.347473
 20
-70.749047
 30
0.0
 40
14.47685
 50
258.225975
 51
271.8769416667
  0
ARC
  8
4
  5
34D
  6
CONTINUOUS
 62
2
 10
-6.54046
 20
-71.829134
 30
0.0
 40
15.841003
 50
258.3841305556
 51
271.7908166667
  0
ARC
  8
4
  5
34F
  6
CONTINUOUS
 62
2
 10
-6.54046
 20
-102.260501
 30
0.0
 40
15.841003
 50
88.2091833333
 51
101.6158694444
  0
ARC
  8
4
  5
351
  6
CONTINUOUS
 62
2
 10
-6.733328
 20
-105.798644
 30
0.0
 40
17.205024
 50
88.2820305556
 51
101.6158694444
  0
ARC
  8
4
  5
353
  6
CONTINUOUS
 62
2
 10
-6.733328
 20
-72.762341
 30
0.0
 40
17.205024
 50
258.3841305556
 51
271.7179694444
  0
LINE
  8
4
  5
355
  6
CONTINUOUS
 62
2
 10
-5.6629
 20
-92.3352
 30
0.0
 11
-6.0378
 21
-92.3352
 31
0.0
  0
ARC
  8
4
  5
357
  6
CONTINUOUS
 62
2
 10
-6.574584
 20
-109.804603
 30
0.0
 40
18.569044
 50
88.3438166667
 51
101.6158694444
  0
LINE
  8
4
  5
359
  6
CENTER
 62
1
 10
6.1281
 20
-92.5773
 30
0.0
 11
22.1644
 21
-92.5773
 31
0.0
  0
TEXT
  8
4
  5
35B
  6
CONTINUOUS
 62
2
 10
10.6345
 20
-92.794
 30
0.0
  1
R-1
 40
0.4335
 41
1.0
  7
STANDARD
  0
LINE
  8
4
  5
35D
  6
CONTINUOUS
 62
2
 10
22.1644
 20
-93.8692
 30
0.0
 11
22.1644
 21
-92.3454
 31
0.0
  0
LINE
  8
4
  5
35F
  6
CONTINUOUS
 62
2
 10
6.1281
 20
-93.8692
 30
0.0
 11
6.1281
 21
-92.1415
 31
0.0
  0
LINE
  8
4
  5
361
  6
CENTER
 62
1
 10
6.5462
 20
-89.336
 30
0.0
 11
21.7459
 21
-89.336
 31
0.0
  0
LINE
  8
4
  5
363
  6
CONTINUOUS
 62
2
 10
21.7459
 20
-90.5168
 30
0.0
 11
21.7459
 21
-89.1076
 31
0.0
  0
TEXT
  8
4
  5
365
  6
CONTINUOUS
 62
2
 10
10.6832
 20
-89.5504
 30
0.0
  1
R-2
 40
0.4335
 41
1.0
  7
STANDARD
  0
LINE
  8
4
  5
367
  6
CONTINUOUS
 62
2
 10
6.5462
 20
-90.5168
 30
0.0
 11
6.5462
 21
-88.9189
 31
0.0
  0
ARC
  8
4
  5
369
  6
CONTINUOUS
 62
2
 10
0.221002
 20
-297.4211
 30
0.0
 40
209.422598
 50
84.1005861111
 51
86.3624333333
  0
ARC
  8
4
  5
36B
  6
CONTINUOUS
 62
2
 10
0.221002
 20
118.749053
 30
0.0
 40
209.422598
 50
273.6375666667
 51
275.8994138889
  0
ARC
  8
4
  5
36D
  6
CONTINUOUS
 62
2
 10
-0.466854
 20
-310.294033
 30
0.0
 40
219.120476
 50
84.0718277778
 51
86.3624333333
  0
ARC
  8
4
  5
36F
  6
CONTINUOUS
 62
2
 10
-0.466854
 20
125.139376
 30
0.0
 40
219.120476
 50
273.6375666667
 51
275.9281722222
  0
LINE
  8
4
  5
371
  6
CONTINUOUS
 62
2
 10
7.0251
 20
-93.1962
 30
0.0
 11
6.801
 21
-93.8692
 31
0.0
  0
LINE
  8
4
  5
373
  6
CONTINUOUS
 62
2
 10
21.0249
 20
-92.9246
 30
0.0
 11
21.4624
 21
-93.8692
 31
0.0
  0
LINE
  8
4
  5
375
  6
CONTINUOUS
 62
2
 10
20.7666
 20
-89.6633
 30
0.0
 11
21.1825
 21
-90.5168
 31
0.0
  0
LINE
  8
4
  5
377
  6
CONTINUOUS
 62
2
 10
7.353
 20
-89.918
 30
0.0
 11
7.1242
 21
-90.5168
 31
0.0
  0
LINE
  8
4
  5
379
  6
CONTINUOUS
 62
2
 10
21.7459
 20
-90.5168
 30
0.0
 11
21.1825
 21
-90.5168
 31
0.0
  0
LINE
  8
4
  5
37B
  6
CONTINUOUS
 62
2
 10
7.1242
 20
-90.5168
 30
0.0
 11
6.5462
 21
-90.5168
 31
0.0
  0
LINE
  8
4
  5
37D
  6
CONTINUOUS
 62
2
 10
22.1644
 20
-93.8692
 30
0.0
 11
21.4624
 21
-93.8692
 31
0.0
  0
LINE
  8
4
  5
37F
  6
CONTINUOUS
 62
2
 10
6.801
 20
-93.8692
 30
0.0
 11
6.1281
 21
-93.8692
 31
0.0
  0
LINE
  8
4
  5
381
  6
CONTINUOUS
 62
2
 10
8.8204
 20
-92.0689
 30
0.0
 11
9.1954
 21
-92.0689
 31
0.0
  0
LINE
  8
4
  5
383
  6
CONTINUOUS
 62
2
 10
13.1312
 20
-91.9688
 30
0.0
 11
12.7563
 21
-91.9688
 31
0.0
  0
LINE
  8
4
  5
385
  6
CONTINUOUS
 62
2
 10
13.1312
 20
-93.1859
 30
0.0
 11
12.7563
 21
-93.1859
 31
0.0
  0
LINE
  8
4
  5
387
  6
CONTINUOUS
 62
2
 10
8.8204
 20
-93.0859
 30
0.0
 11
9.1954
 21
-93.0859
 31
0.0
  0
LINE
  8
4
  5
389
  6
CONTINUOUS
 62
2
 10
12.7563
 20
-91.9688
 30
0.0
 11
12.7563
 21
-92.5773
 31
0.0
  0
LINE
  8
4
  5
38B
  6
CONTINUOUS
 62
2
 10
12.7563
 20
-93.1859
 30
0.0
 11
12.7563
 21
-93.5819
 31
0.0
  0
LINE
  8
4
  5
38D
  6
CONTINUOUS
 62
2
 10
13.1312
 20
-91.5938
 30
0.0
 11
13.1312
 21
-91.9688
 31
0.0
  0
LINE
  8
4
  5
38F
  6
CONTINUOUS
 62
2
 10
13.1312
 20
-93.1859
 30
0.0
 11
13.1312
 21
-93.5608
 31
0.0
  0
LINE
  8
4
  5
391
  6
CONTINUOUS
 62
2
 10
9.1954
 20
-92.0689
 30
0.0
 11
9.1954
 21
-92.5773
 31
0.0
  0
LINE
  8
4
  5
393
  6
CONTINUOUS
 62
2
 10
9.1954
 20
-93.0859
 30
0.0
 11
9.1954
 21
-93.4994
 31
0.0
  0
LINE
  8
4
  5
395
  6
CONTINUOUS
 62
2
 10
8.8204
 20
-91.6938
 30
0.0
 11
8.8204
 21
-92.0689
 31
0.0
  0
LINE
  8
4
  5
397
  6
CONTINUOUS
 62
2
 10
8.8204
 20
-93.0859
 30
0.0
 11
8.8204
 21
-93.4609
 31
0.0
  0
LINE
  8
4
  5
399
  6
CONTINUOUS
 62
2
 10
8.8204
 20
-88.903
 30
0.0
 11
9.1954
 21
-88.903
 31
0.0
  0
LINE
  8
4
  5
39B
  6
CONTINUOUS
 62
2
 10
8.8204
 20
-89.769
 30
0.0
 11
9.1954
 21
-89.769
 31
0.0
  0
LINE
  8
4
  5
39D
  6
CONTINUOUS
 62
2
 10
13.1312
 20
-89.9023
 30
0.0
 11
12.7563
 21
-89.9023
 31
0.0
  0
LINE
  8
4
  5
39F
  6
CONTINUOUS
 62
2
 10
13.1312
 20
-88.7698
 30
0.0
 11
12.7563
 21
-88.7698
 31
0.0
  0
LINE
  8
4
  5
3A1
  6
CONTINUOUS
 62
2
 10
9.1954
 20
-88.903
 30
0.0
 11
9.1954
 21
-89.336
 31
0.0
  0
LINE
  8
4
  5
3A3
  6
CONTINUOUS
 62
2
 10
9.1954
 20
-89.769
 30
0.0
 11
9.1954
 21
-90.1868
 31
0.0
  0
LINE
  8
4
  5
3A5
  6
CONTINUOUS
 62
2
 10
8.8204
 20
-88.528
 30
0.0
 11
8.8204
 21
-88.903
 31
0.0
  0
LINE
  8
4
  5
3A7
  6
CONTINUOUS
 62
2
 10
8.8204
 20
-89.769
 30
0.0
 11
8.8204
 21
-90.144
 31
0.0
  0
LINE
  8
4
  5
3A9
  6
CONTINUOUS
 62
2
 10
12.7563
 20
-88.7698
 30
0.0
 11
12.7563
 21
-89.336
 31
0.0
  0
LINE
  8
4
  5
3AB
  6
CONTINUOUS
 62
2
 10
12.7563
 20
-89.9023
 30
0.0
 11
12.7563
 21
-90.2968
 31
0.0
  0
LINE
  8
4
  5
3AD
  6
CONTINUOUS
 62
2
 10
13.1312
 20
-88.3948
 30
0.0
 11
13.1312
 21
-88.7698
 31
0.0
  0
LINE
  8
4
  5
3AF
  6
CONTINUOUS
 62
2
 10
13.1312
 20
-89.9023
 30
0.0
 11
13.1312
 21
-90.2772
 31
0.0
  0
ARC
  8
4
  5
3B1
  6
CONTINUOUS
 62
2
 10
11.707194
 20
-112.138291
 30
0.0
 40
23.786119
 50
96.9710777778
 51
102.5313388889
  0
ARC
  8
4
  5
3B3
  6
CONTINUOUS
 62
2
 10
11.707194
 20
-66.533756
 30
0.0
 40
23.786119
 50
257.4686611111
 51
263.028925
  0
ARC
  8
4
  5
3B5
  6
CONTINUOUS
 62
2
 10
11.707194
 20
-112.138291
 30
0.0
 40
23.786119
 50
87.7736027778
 51
95.75915
  0
ARC
  8
4
  5
3B7
  6
CONTINUOUS
 62
2
 10
11.707194
 20
-112.138291
 30
0.0
 40
23.786119
 50
85.6613361111
 51
86.5676805556
  0
ARC
  8
4
  5
3B9
  6
CONTINUOUS
 62
2
 10
11.707194
 20
-66.533756
 30
0.0
 40
23.786119
 50
263.938125
 51
272.5277611111
  0
ARC
  8
4
  5
3BB
  6
CONTINUOUS
 62
2
 10
11.707194
 20
-66.533756
 30
0.0
 40
23.786119
 50
273.4323333333
 51
274.3386638889
  0
ARC
  8
4
  5
3BD
  6
CONTINUOUS
 62
2
 10
11.550999
 20
-116.435044
 30
0.0
 40
24.891446
 50
96.2982361111
 51
102.5834388889
  0
ARC
  8
4
  5
3BF
  6
CONTINUOUS
 62
2
 10
11.550999
 20
-116.435044
 30
0.0
 40
24.891446
 50
87.5126888889
 51
95.1415111111
  0
ARC
  8
4
  5
3C1
  6
CONTINUOUS
 62
2
 10
11.550999
 20
-116.435044
 30
0.0
 40
24.891446
 50
85.6613361111
 51
86.3600694444
  0
ARC
  8
4
  5
3C3
  6
CONTINUOUS
 62
2
 10
11.550999
 20
-68.719612
 30
0.0
 40
24.891446
 50
273.6399277778
 51
274.3386638889
  0
ARC
  8
4
  5
3C5
  6
CONTINUOUS
 62
2
 10
11.550999
 20
-68.719612
 30
0.0
 40
24.891446
 50
257.4165611111
 51
263.7017694444
  0
ARC
  8
4
  5
3C7
  6
CONTINUOUS
 62
2
 10
11.550999
 20
-68.719612
 30
0.0
 40
24.891446
 50
264.5695277778
 51
272.7753527778
  0
LINE
  8
4
  5
3C9
  6
CONTINUOUS
 62
2
 10
12.6313
 20
-88.3753
 30
0.0
 11
12.6313
 21
-89.336
 31
0.0
  0
LINE
  8
4
  5
3CB
  6
CONTINUOUS
 62
2
 10
12.6313
 20
-91.5729
 30
0.0
 11
12.6313
 21
-92.5773
 31
0.0
  0
LINE
  8
4
  5
3CD
  6
CONTINUOUS
 62
2
 10
12.7563
 20
-89.336
 30
0.0
 11
12.6313
 21
-89.336
 31
0.0
  0
LINE
  8
4
  5
3CF
  6
CONTINUOUS
 62
2
 10
12.6313
 20
-92.5773
 30
0.0
 11
12.7563
 21
-92.5773
 31
0.0
  0
LINE
  8
4
  5
3D1
  6
CONTINUOUS
 62
2
 10
9.3203
 20
-88.4852
 30
0.0
 11
9.3203
 21
-89.336
 31
0.0
  0
LINE
  8
4
  5
3D3
  6
CONTINUOUS
 62
2
 10
9.1954
 20
-89.336
 30
0.0
 11
9.3203
 21
-89.336
 31
0.0
  0
LINE
  8
4
  5
3D5
  6
CONTINUOUS
 62
2
 10
9.3203
 20
-91.6437
 30
0.0
 11
9.3203
 21
-92.5773
 31
0.0
  0
LINE
  8
4
  5
3D7
  6
CONTINUOUS
 62
2
 10
9.1954
 20
-92.5773
 30
0.0
 11
9.3203
 21
-92.5773
 31
0.0
  0
TEXT
  8
4
  5
3D9
  6
CONTINUOUS
 62
2
 10
9.8972
 20
-86.5014
 30
0.0
  1
R-3
 40
0.4335
 41
1.0
  7
STANDARD
  0
LINE
  8
4
  5
3DB
  6
CONTINUOUS
 62
2
 10
20.7508
 20
-87.3244
 30
0.0
 11
20.7508
 21
-86.0595
 31
0.0
  0
LINE
  8
4
  5
3DD
  6
CONTINUOUS
 62
2
 10
6.5836
 20
-87.3244
 30
0.0
 11
6.5836
 21
-85.8892
 31
0.0
  0
LINE
  8
4
  5
3DF
  6
CONTINUOUS
 62
2
 10
19.5655
 20
-82.0569
 30
0.0
 11
19.5655
 21
-81.0061
 31
0.0
  0
TEXT
  8
4
  5
3E1
  6
CONTINUOUS
 62
2
 10
9.5247
 20
-81.4403
 30
0.0
  1
R-5
 40
0.4335
 41
1.0
  7
STANDARD
  0
LINE
  8
4
  5
3E3
  6
CONTINUOUS
 62
2
 10
6.9313
 20
-82.0569
 30
0.0
 11
6.9313
 21
-80.8632
 31
0.0
  0
ARC
  8
4
  5
3E5
  6
CONTINUOUS
 62
2
 10
1.433003
 20
-259.772171
 30
0.0
 40
179.68329
 50
84.2081888889
 51
86.3624333333
  0
ARC
  8
4
  5
3E7
  6
CONTINUOUS
 62
2
 10
1.433003
 20
97.325683
 30
0.0
 40
179.68329
 50
273.6375666667
 51
275.7918111111
  0
ARC
  8
4
  5
3E9
  6
CONTINUOUS
 62
2
 10
0.591171
 20
-282.481487
 30
0.0
 40
197.453845
 50
84.1400027778
 51
86.3624333333
  0
ARC
  8
4
  5
3EB
  6
CONTINUOUS
 62
2
 10
0.591171
 20
109.914685
 30
0.0
 40
197.453845
 50
273.6375666667
 51
275.8599972222
  0
LINE
  8
4
  5
3ED
  6
CONTINUOUS
 62
2
 10
12.2775
 20
-85.7699
 30
0.0
 11
12.2775
 21
-86.2834
 31
0.0
  0
LINE
  8
4
  5
3EF
  6
CONTINUOUS
 62
2
 10
19.6794
 20
-84.6404
 30
0.0
 11
19.6794
 21
-83.5414
 31
0.0
  0
TEXT
  8
4
  5
3F1
  6
CONTINUOUS
 62
2
 10
9.5232
 20
-84.0024
 30
0.0
  1
R-4
 40
0.4335
 41
1.0
  7
STANDARD
  0
LINE
  8
4
  5
3F3
  6
CONTINUOUS
 62
2
 10
6.6999
 20
-84.6404
 30
0.0
 11
6.6999
 21
-83.3923
 31
0.0
  0
ARC
  8
4
  5
3F5
  6
CONTINUOUS
 62
2
 10
1.090157
 20
-266.284335
 30
0.0
 40
183.686012
 50
84.1916916667
 51
86.3624333333
  0
ARC
  8
4
  5
3F7
  6
CONTINUOUS
 62
2
 10
1.090157
 20
98.764275
 30
0.0
 40
183.686012
 50
273.6375666667
 51
275.8083083333
  0
LINE
  8
4
  5
3F9
  6
CONTINUOUS
 62
2
 10
7.3635
 20
-86.8355
 30
0.0
 11
7.1779
 21
-87.3244
 31
0.0
  0
LINE
  8
4
  5
3FB
  6
CONTINUOUS
 62
2
 10
19.8618
 20
-86.5965
 30
0.0
 11
20.2129
 21
-87.3244
 31
0.0
  0
LINE
  8
4
  5
3FD
  6
CONTINUOUS
 62
2
 10
20.7508
 20
-87.3244
 30
0.0
 11
20.2129
 21
-87.3244
 31
0.0
  0
LINE
  8
4
  5
3FF
  6
CONTINUOUS
 62
2
 10
7.1779
 20
-87.3244
 30
0.0
 11
6.5836
 21
-87.3244
 31
0.0
  0
LINE
  8
4
  5
401
  6
CONTINUOUS
 62
2
 10
7.4031
 20
-84.2693
 30
0.0
 11
7.2549
 21
-84.6404
 31
0.0
  0
LINE
  8
4
  5
403
  6
CONTINUOUS
 62
2
 10
18.8505
 20
-84.0611
 30
0.0
 11
19.1946
 21
-84.6404
 31
0.0
  0
LINE
  8
4
  5
405
  6
CONTINUOUS
 62
2
 10
19.6794
 20
-84.6404
 30
0.0
 11
19.1946
 21
-84.6404
 31
0.0
  0
LINE
  8
4
  5
407
  6
CONTINUOUS
 62
2
 10
7.2549
 20
-84.6404
 30
0.0
 11
6.6999
 21
-84.6404
 31
0.0
  0
LINE
  8
4
  5
409
  6
CONTINUOUS
 62
2
 10
18.7927
 20
-81.517
 30
0.0
 11
19.0538
 21
-82.0569
 31
0.0
  0
LINE
  8
4
  5
40B
  6
CONTINUOUS
 62
2
 10
7.518
 20
-81.7025
 30
0.0
 11
7.3662
 21
-82.0569
 31
0.0
  0
LINE
  8
4
  5
40D
  6
CONTINUOUS
 62
2
 10
6.9313
 20
-82.0569
 30
0.0
 11
7.3662
 21
-82.0569
 31
0.0
  0
LINE
  8
4
  5
40F
  6
CONTINUOUS
 62
2
 10
19.0538
 20
-82.0569
 30
0.0
 11
19.5655
 21
-82.0569
 31
0.0
  0
LINE
  8
4
  5
411
  6
CONTINUOUS
 62
2
 10
8.3415
 20
-85.9486
 30
0.0
 11
8.7166
 21
-85.9486
 31
0.0
  0
LINE
  8
4
  5
413
  6
CONTINUOUS
 62
2
 10
8.3415
 20
-86.6181
 30
0.0
 11
8.7166
 21
-86.6181
 31
0.0
  0
LINE
  8
4
  5
415
  6
CONTINUOUS
 62
2
 10
12.6525
 20
-85.7699
 30
0.0
 11
12.2775
 21
-85.7699
 31
0.0
  0
LINE
  8
4
  5
417
  6
CONTINUOUS
 62
2
 10
12.6525
 20
-86.7968
 30
0.0
 11
12.2775
 21
-86.7968
 31
0.0
  0
LINE
  8
4
  5
419
  6
CONTINUOUS
 62
2
 10
8.7166
 20
-85.9486
 30
0.0
 11
8.7166
 21
-86.2834
 31
0.0
  0
LINE
  8
4
  5
41B
  6
CONTINUOUS
 62
2
 10
8.7166
 20
-86.6181
 30
0.0
 11
8.7166
 21
-87.0419
 31
0.0
  0
LINE
  8
4
  5
41D
  6
CONTINUOUS
 62
2
 10
8.3415
 20
-85.5736
 30
0.0
 11
8.3415
 21
-85.9486
 31
0.0
  0
LINE
  8
4
  5
41F
  6
CONTINUOUS
 62
2
 10
8.3415
 20
-86.6181
 30
0.0
 11
8.3415
 21
-86.993
 31
0.0
  0
LINE
  8
4
  5
421
  6
CONTINUOUS
 62
2
 10
12.2775
 20
-86.7968
 30
0.0
 11
12.2775
 21
-87.1894
 31
0.0
  0
LINE
  8
4
  5
423
  6
CONTINUOUS
 62
2
 10
12.6525
 20
-85.395
 30
0.0
 11
12.6525
 21
-85.7699
 31
0.0
  0
LINE
  8
4
  5
425
  6
CONTINUOUS
 62
2
 10
12.6525
 20
-86.7968
 30
0.0
 11
12.6525
 21
-87.1719
 31
0.0
  0
LINE
  8
4
  5
427
  6
CONTINUOUS
 62
2
 10
12.1746
 20
-83.3079
 30
0.0
 11
11.7997
 21
-83.3079
 31
0.0
  0
LINE
  8
4
  5
429
  6
CONTINUOUS
 62
2
 10
12.1746
 20
-84.212
 30
0.0
 11
11.7997
 21
-84.212
 31
0.0
  0
LINE
  8
4
  5
42B
  6
CONTINUOUS
 62
2
 10
7.8639
 20
-83.5465
 30
0.0
 11
8.2388
 21
-83.5465
 31
0.0
  0
LINE
  8
4
  5
42D
  6
CONTINUOUS
 62
2
 10
7.8639
 20
-83.9734
 30
0.0
 11
8.2388
 21
-83.9734
 31
0.0
  0
LINE
  8
4
  5
42F
  6
CONTINUOUS
 62
2
 10
12.1746
 20
-82.933
 30
0.0
 11
12.1746
 21
-83.3079
 31
0.0
  0
LINE
  8
4
  5
431
  6
CONTINUOUS
 62
2
 10
12.1746
 20
-84.212
 30
0.0
 11
12.1746
 21
-84.5869
 31
0.0
  0
LINE
  8
4
  5
433
  6
CONTINUOUS
 62
2
 10
11.7997
 20
-83.3079
 30
0.0
 11
11.7997
 21
-83.76
 31
0.0
  0
LINE
  8
4
  5
435
  6
CONTINUOUS
 62
2
 10
11.7997
 20
-84.212
 30
0.0
 11
11.7997
 21
-84.6018
 31
0.0
  0
LINE
  8
4
  5
437
  6
CONTINUOUS
 62
2
 10
8.2388
 20
-83.5465
 30
0.0
 11
8.2388
 21
-83.76
 31
0.0
  0
LINE
  8
4
  5
439
  6
CONTINUOUS
 62
2
 10
8.2388
 20
-83.9734
 30
0.0
 11
8.2388
 21
-84.4052
 31
0.0
  0
LINE
  8
4
  5
43B
  6
CONTINUOUS
 62
2
 10
7.8639
 20
-83.1716
 30
0.0
 11
7.8639
 21
-83.5465
 31
0.0
  0
LINE
  8
4
  5
43D
  6
CONTINUOUS
 62
2
 10
7.8639
 20
-83.9734
 30
0.0
 11
7.8639
 21
-84.3484
 31
0.0
  0
LINE
  8
4
  5
43F
  6
CONTINUOUS
 62
2
 10
12.2336
 20
-80.7893
 30
0.0
 11
11.8587
 21
-80.7893
 31
0.0
  0
LINE
  8
4
  5
441
  6
CONTINUOUS
 62
2
 10
12.2336
 20
-81.6572
 30
0.0
 11
11.8587
 21
-81.6572
 31
0.0
  0
LINE
  8
4
  5
443
  6
CONTINUOUS
 62
2
 10
7.9226
 20
-81.0471
 30
0.0
 11
8.2977
 21
-81.0471
 31
0.0
  0
LINE
  8
4
  5
445
  6
CONTINUOUS
 62
2
 10
7.9226
 20
-81.3995
 30
0.0
 11
8.2977
 21
-81.3995
 31
0.0
  0
LINE
  8
4
  5
447
  6
CONTINUOUS
 62
2
 10
12.2336
 20
-82.0322
 30
0.0
 11
12.2336
 21
-81.6572
 31
0.0
  0
LINE
  8
4
  5
449
  6
CONTINUOUS
 62
2
 10
12.2336
 20
-80.7893
 30
0.0
 11
12.2336
 21
-80.4142
 31
0.0
  0
LINE
  8
4
  5
44B
  6
CONTINUOUS
 62
2
 10
11.8587
 20
-82.0462
 30
0.0
 11
11.8587
 21
-81.6572
 31
0.0
  0
LINE
  8
4
  5
44D
  6
CONTINUOUS
 62
2
 10
11.8587
 20
-80.7893
 30
0.0
 11
11.8587
 21
-80.4003
 31
0.0
  0
LINE
  8
4
  5
44F
  6
CONTINUOUS
 62
2
 10
8.2977
 20
-80.6129
 30
0.0
 11
8.2977
 21
-81.0471
 31
0.0
  0
LINE
  8
4
  5
451
  6
CONTINUOUS
 62
2
 10
8.2977
 20
-81.3995
 30
0.0
 11
8.2977
 21
-81.8337
 31
0.0
  0
LINE
  8
4
  5
453
  6
CONTINUOUS
 62
2
 10
7.9226
 20
-80.6721
 30
0.0
 11
7.9226
 21
-81.0471
 31
0.0
  0
LINE
  8
4
  5
455
  6
CONTINUOUS
 62
2
 10
7.9226
 20
-81.3995
 30
0.0
 11
7.9226
 21
-81.7744
 31
0.0
  0
ARC
  8
4
  5
457
  6
CONTINUOUS
 62
2
 10
11.288814
 20
-100.788898
 30
0.0
 40
20.396546
 50
99.4992361111
 51
102.3356027778
  0
ARC
  8
4
  5
459
  6
CONTINUOUS
 62
2
 10
11.288814
 20
-100.788898
 30
0.0
 40
20.396546
 50
88.3991666667
 51
98.4327305556
  0
ARC
  8
4
  5
45B
  6
CONTINUOUS
 62
2
 10
11.288814
 20
-100.788898
 30
0.0
 40
20.396546
 50
85.6613361111
 51
87.3449833333
  0
ARC
  8
4
  5
45D
  6
CONTINUOUS
 62
2
 10
11.288814
 20
-61.657591
 30
0.0
 40
20.396546
 50
257.6643972222
 51
260.5007722222
  0
ARC
  8
4
  5
45F
  6
CONTINUOUS
 62
2
 10
11.288814
 20
-61.657591
 30
0.0
 40
20.396546
 50
261.567275
 51
271.6008305556
  0
ARC
  8
4
  5
461
  6
CONTINUOUS
 62
2
 10
11.288814
 20
-61.657591
 30
0.0
 40
20.396546
 50
272.6550138889
 51
274.3386638889
  0
ARC
  8
4
  5
463
  6
CONTINUOUS
 62
2
 10
11.165407
 20
-103.761311
 30
0.0
 40
20.852761
 50
99.1100194444
 51
102.3655194444
  0
ARC
  8
4
  5
465
  6
CONTINUOUS
 62
2
 10
11.165407
 20
-63.758749
 30
0.0
 40
20.852761
 50
257.6344805556
 51
260.8899888889
  0
ARC
  8
4
  5
467
  6
CONTINUOUS
 62
2
 10
11.165407
 20
-103.761311
 30
0.0
 40
20.852761
 50
88.6004861111
 51
97.7211527778
  0
ARC
  8
4
  5
469
  6
CONTINUOUS
 62
2
 10
11.165407
 20
-103.761311
 30
0.0
 40
20.852761
 50
85.6613361111
 51
87.2256722222
  0
ARC
  8
4
  5
46B
  6
CONTINUOUS
 62
2
 10
11.165407
 20
-63.758749
 30
0.0
 40
20.852761
 50
261.9321111111
 51
271.7431111111
  0
ARC
  8
4
  5
46D
  6
CONTINUOUS
 62
2
 10
11.165407
 20
-63.758749
 30
0.0
 40
20.852761
 50
272.774325
 51
274.3386638889
  0
ARC
  8
4
  5
46F
  6
CONTINUOUS
 62
2
 10
11.421207
 20
-107.783075
 30
0.0
 40
22.421966
 50
97.8946638889
 51
102.4596138889
  0
ARC
  8
4
  5
471
  6
CONTINUOUS
 62
2
 10
11.421207
 20
-64.783727
 30
0.0
 40
22.421966
 50
257.5403861111
 51
262.1053166667
  0
ARC
  8
4
  5
473
  6
CONTINUOUS
 62
2
 10
11.421207
 20
-107.783075
 30
0.0
 40
22.421966
 50
88.1311555556
 51
96.6066305556
  0
ARC
  8
4
  5
475
  6
CONTINUOUS
 62
2
 10
11.421207
 20
-107.783075
 30
0.0
 40
22.421966
 50
85.6613361111
 51
86.8521972222
  0
ARC
  8
4
  5
477
  6
CONTINUOUS
 62
2
 10
11.421207
 20
-64.783727
 30
0.0
 40
22.421966
 50
263.0716944444
 51
272.1884722222
  0
ARC
  8
4
  5
479
  6
CONTINUOUS
 62
2
 10
11.421207
 20
-64.783727
 30
0.0
 40
22.421966
 50
273.1478111111
 51
274.3386638889
  0
LINE
  8
4
  5
47B
  6
CONTINUOUS
 62
2
 10
11.6748
 20
-82.9182
 30
0.0
 11
11.6748
 21
-83.76
 31
0.0
  0
LINE
  8
4
  5
47D
  6
CONTINUOUS
 62
2
 10
8.3638
 20
-83.0975
 30
0.0
 11
8.3638
 21
-83.76
 31
0.0
  0
LINE
  8
4
  5
47F
  6
CONTINUOUS
 62
2
 10
12.1525
 20
-85.3775
 30
0.0
 11
12.1525
 21
-86.2834
 31
0.0
  0
LINE
  8
4
  5
481
  6
CONTINUOUS
 62
2
 10
8.8416
 20
-85.51
 30
0.0
 11
8.8416
 21
-86.2834
 31
0.0
  0
LINE
  8
4
  5
483
  6
CONTINUOUS
 62
2
 10
11.6748
 20
-83.76
 30
0.0
 11
11.7997
 21
-83.76
 31
0.0
  0
LINE
  8
4
  5
485
  6
CONTINUOUS
 62
2
 10
12.1525
 20
-86.2834
 30
0.0
 11
12.2775
 21
-86.2834
 31
0.0
  0
LINE
  8
4
  5
487
  6
CONTINUOUS
 62
2
 10
8.7166
 20
-86.2834
 30
0.0
 11
8.8416
 21
-86.2834
 31
0.0
  0
LINE
  8
4
  5
489
  6
CONTINUOUS
 62
2
 10
8.2388
 20
-83.76
 30
0.0
 11
8.3638
 21
-83.76
 31
0.0
  0
LINE
  8
4
  5
48B
  6
HIDDEN
 62
253
 10
10.7362
 20
-83.76
 30
0.0
 11
11.4239
 21
-83.76
 31
0.0
  0
LINE
  8
4
  5
48D
  6
HIDDEN
 62
253
 10
10.8265
 20
-81.2233
 30
0.0
 11
11.4826
 21
-81.2233
 31
0.0
  0
LINE
  8
4
  5
48F
  6
HIDDEN
 62
46
 10
7.3342
 20
-81.2233
 30
0.0
 11
7.7092
 21
-81.2233
 31
0.0
  0
LINE
  8
4
  5
491
  6
HIDDEN
 62
46
 10
18.9017
 20
-81.2233
 30
0.0
 11
19.2768
 21
-81.2233
 31
0.0
  0
LINE
  8
4
  5
493
  6
HIDDEN
 62
253
 10
19.0893
 20
-81.0358
 30
0.0
 11
19.0893
 21
-81.4355
 31
0.0
  0
CIRCLE
  8
4
  5
495
  6
HIDDEN
 62
253
 10
19.089261
 20
-81.223253
 30
0.0
 40
0.125618
  0
LINE
  8
4
  5
497
  6
HIDDEN
 62
253
 10
7.5216
 20
-81.0358
 30
0.0
 11
7.5216
 21
-81.433
 31
0.0
  0
CIRCLE
  8
4
  5
499
  6
HIDDEN
 62
253
 10
7.521668
 20
-81.223253
 30
0.0
 40
0.125308
  0
LINE
  8
4
  5
49B
  6
HIDDEN
 62
46
 10
7.3377
 20
-83.76
 30
0.0
 11
7.5877
 21
-83.76
 31
0.0
  0
CIRCLE
  8
4
  5
49D
  6
HIDDEN
 62
253
 10
7.462766
 20
-83.760039
 30
0.0
 40
0.125004
  0
LINE
  8
4
  5
49F
  6
HIDDEN
 62
46
 10
18.9054
 20
-83.76
 30
0.0
 11
19.1554
 21
-83.76
 31
0.0
  0
CIRCLE
  8
4
  5
4A1
  6
HIDDEN
 62
253
 10
19.030359
 20
-83.760039
 30
0.0
 40
0.125004
  0
LINE
  8
4
  5
4A3
  6
HIDDEN
 62
253
 10
11.1391
 20
-80.8795
 30
0.0
 11
11.1391
 21
-81.5671
 31
0.0
  0
CIRCLE
  8
4
  5
4A5
  6
HIDDEN
 62
253
 10
11.138991
 20
-81.223253
 30
0.0
 40
0.343762
  0
LINE
  8
4
  5
4A7
  6
CENTER
 62
1
 10
6.9313
 20
-81.2233
 30
0.0
 11
9.3351
 21
-81.2233
 31
0.0
  0
LINE
  8
4
  5
4A9
  6
CENTER
 62
1
 10
11.8895
 20
-81.2233
 30
0.0
 11
19.5655
 21
-81.2233
 31
0.0
  0
LINE
  8
4
  5
4AB
  6
CENTER
 62
1
 10
6.6999
 20
-83.76
 30
0.0
 11
9.0815
 21
-83.76
 31
0.0
  0
LINE
  8
4
  5
4AD
  6
CENTER
 62
1
 10
12.2306
 20
-83.76
 30
0.0
 11
19.6794
 21
-83.76
 31
0.0
  0
LINE
  8
4
  5
4AF
  6
HIDDEN
 62
253
 10
11.0801
 20
-83.4164
 30
0.0
 11
11.0801
 21
-84.1037
 31
0.0
  0
LINE
  8
4
  5
4B1
  6
CENTER
 62
1
 10
6.5836
 20
-86.2834
 30
0.0
 11
9.6735
 21
-86.2834
 31
0.0
  0
LINE
  8
4
  5
4B3
  6
CENTER
 62
1
 10
12.7357
 20
-86.2834
 30
0.0
 11
20.7508
 21
-86.2834
 31
0.0
  0
LINE
  8
4
  5
4B5
  6
HIDDEN
 62
253
 10
11.5581
 20
-85.9396
 30
0.0
 11
11.5581
 21
-86.6272
 31
0.0
  0
LINE
  8
4
  5
4B7
  6
HIDDEN
 62
253
 10
11.2143
 20
-86.2834
 30
0.0
 11
11.9017
 21
-86.2834
 31
0.0
  0
CIRCLE
  8
4
  5
4B9
  6
HIDDEN
 62
253
 10
11.558005
 20
-86.283425
 30
0.0
 40
0.343762
  0
CIRCLE
  8
4
  5
4BB
  6
HIDDEN
 62
253
 10
11.080089
 20
-83.760039
 30
0.0
 40
0.343762
  0
LINE
  8
1
  5
4BD
  6
CENTER
 62
1
 10
76.6185
 20
-106.9039
 30
0.0
 11
66.918
 21
-107.2426
 31
0.0
  0
ARC
  8
12
  5
4BF
  6
CONTINUOUS
 62
2
 10
68.957571
 20
-318.866173
 30
0.0
 40
212.093812
 50
88.2228888889
 51
90.3565972222
  0
ARC
  8
12
  5
4C1
  6
CONTINUOUS
 62
2
 10
61.675502
 20
15.679957
 30
0.0
 40
123.482894
 50
272.7830138889
 51
276.4466972222
  0
TEXT
  8
12
  5
4C3
  6
CONTINUOUS
 62
2
 10
68.5245
 20
-107.0542
 30
0.0
  1
TOP
 40
0.2146
 41
1.0
  7
ROMANS
 72
4
 11
68.8067
 21
-106.9469
 31
0.0
  0
LINE
  8
1
  5
4C5
  6
CONTINUOUS
 62
2
 10
68.3702
 20
-107.2544
 30
0.0
 11
67.6597
 21
-107.2793
 31
0.0
  0
LINE
  8
1
  5
4C7
  6
CONTINUOUS
 62
2
 10
68.3659
 20
-107.1296
 30
0.0
 11
67.6554
 21
-107.1544
 31
0.0
  0
LINE
  8
2
  5
4C9
  6
CONTINUOUS
 62
2
 10
68.3658
 20
-107.1296
 30
0.0
 11
68.3702
 21
-107.2544
 31
0.0
  0
LINE
  8
2
  5
4CB
  6
CONTINUOUS
 62
2
 10
67.6421
 20
-106.7764
 30
0.0
 11
67.6554
 21
-107.1544
 31
0.0
  0
LINE
  8
2
  5
4CD
  6
CONTINUOUS
 62
2
 10
67.6597
 20
-107.2793
 30
0.0
 11
67.6729
 21
-107.6572
 31
0.0
  0
LINE
  8
1
  5
4CF
  6
CONTINUOUS
 62
2
 10
75.5351
 20
-106.8792
 30
0.0
 11
72.5384
 21
-106.9839
 31
0.0
  0
LINE
  8
1
  5
4D1
  6
CONTINUOUS
 62
2
 10
75.5394
 20
-107.0041
 30
0.0
 11
72.5428
 21
-107.1089
 31
0.0
  0
LINE
  8
2
  5
4D3
  6
CONTINUOUS
 62
2
 10
72.5384
 20
-106.9839
 30
0.0
 11
72.5428
 21
-107.1089
 31
0.0
  0
LINE
  8
2
  5
4D5
  6
CONTINUOUS
 62
2
 10
75.535
 20
-106.8744
 30
0.0
 11
75.5351
 21
-106.8792
 31
0.0
  0
LINE
  8
2
  5
4D7
  6
CONTINUOUS
 62
2
 10
75.5394
 20
-107.0041
 30
0.0
 11
75.54
 21
-107.0222
 31
0.0
  0
ARC
  8
1
  5
4D9
  6
CONTINUOUS
 62
2
 10
50.288382
 20
-110.202308
 30
0.0
 40
25.715976
 50
11.4664638889
 51
29.4432166667
  0
ARC
  8
1
  5
4DB
  6
CONTINUOUS
 62
2
 10
72.073357
 20
-97.905448
 30
0.0
 40
0.700024
 50
29.4432166667
 51
125.5530055556
  0
ARC
  8
1
  5
4DD
  6
CONTINUOUS
 62
2
 10
85.556699
 20
-111.200526
 30
0.0
 40
19.625688
 50
135.0531722222
 51
161.8595444444
  0
LINE
  8
1
  5
4DF
  6
CONTINUOUS
 62
2
 10
72.9367
 20
-100.4062
 30
0.0
 11
73.6018
 21
-102.3332
 31
0.0
  0
LINE
  8
1
  5
4E1
  6
CONTINUOUS
 62
2
 10
73.6018
 20
-102.3332
 30
0.0
 11
74.1706
 21
-103.9812
 31
0.0
  0
LINE
  8
1
  5
4E3
  6
CONTINUOUS
 62
2
 10
68.4415
 20
-103.9355
 30
0.0
 11
69.3149
 21
-102.3332
 31
0.0
  0
LINE
  8
1
  5
4E5
  6
CONTINUOUS
 62
2
 10
69.3149
 20
-102.3332
 30
0.0
 11
70.3903
 21
-100.3603
 31
0.0
  0
LINE
  8
12
  5
4E7
  6
CENTER
 62
1
 10
72.0748
 20
-97.2055
 30
0.0
 11
72.0748
 21
-105.0901
 31
0.0
  0
LINE
  8
1
  5
4E9
  6
CONTINUOUS
 62
2
 10
68.7049
 20
-104.3791
 30
0.0
 11
73.8871
 21
-104.3791
 31
0.0
  0
ARC
  8
1
  5
4EB
  6
CONTINUOUS
 62
2
 10
73.887075
 20
-104.079083
 30
0.0
 40
0.30001
 50
270.0
 51
19.0366722222
  0
ARC
  8
1
  5
4ED
  6
CONTINUOUS
 62
2
 10
68.704858
 20
-104.079083
 30
0.0
 40
0.30001
 50
151.3968138889
 51
270.0
  0
ARC
  8
1
  5
4EF
  6
CONTINUOUS
 62
2
 10
72.653144
 20
-100.503961
 30
0.0
 40
0.30001
 50
19.0327972222
 51
90.0
  0
ARC
  8
1
  5
4F1
  6
CONTINUOUS
 62
2
 10
70.653689
 20
-100.503961
 30
0.0
 40
0.30001
 50
90.0
 51
151.4078361111
  0
LINE
  8
1
  5
4F3
  6
CONTINUOUS
 62
2
 10
72.1373
 20
-99.704
 30
0.0
 11
72.1373
 21
-100.2039
 31
0.0
  0
LINE
  8
1
  5
4F5
  6
CONTINUOUS
 62
2
 10
72.0123
 20
-99.704
 30
0.0
 11
72.0123
 21
-100.2039
 31
0.0
  0
LINE
  8
1
  5
4F7
  6
CONTINUOUS
 62
2
 10
72.0123
 20
-99.704
 30
0.0
 11
72.1373
 21
-99.704
 31
0.0
  0
LINE
  8
1
  5
4F9
  6
CONTINUOUS
 62
2
 10
70.6538
 20
-100.2039
 30
0.0
 11
72.0123
 21
-100.2039
 31
0.0
  0
LINE
  8
1
  5
4FB
  6
CONTINUOUS
 62
2
 10
72.1373
 20
-100.2039
 30
0.0
 11
72.6531
 21
-100.2039
 31
0.0
  0
LINE
  8
1
  5
4FD
  6
CONTINUOUS
 62
2
 10
68.0719
 20
-105.0901
 30
0.0
 11
68.0719
 21
-105.3425
 31
0.0
  0
LINE
  8
1
  5
4FF
  6
CONTINUOUS
 62
2
 10
68.0719
 20
-105.3425
 30
0.0
 11
69.0456
 21
-105.3425
 31
0.0
  0
LINE
  8
1
  5
501
  6
CONTINUOUS
 62
2
 10
69.0456
 20
-105.3425
 30
0.0
 11
69.0456
 21
-105.0901
 31
0.0
  0
LINE
  8
1
  5
503
  6
CONTINUOUS
 62
2
 10
73.7095
 20
-105.0901
 30
0.0
 11
73.7095
 21
-105.3425
 31
0.0
  0
LINE
  8
1
  5
505
  6
CONTINUOUS
 62
2
 10
73.7095
 20
-105.3425
 30
0.0
 11
74.6834
 21
-105.3425
 31
0.0
  0
LINE
  8
1
  5
507
  6
CONTINUOUS
 62
2
 10
74.6834
 20
-105.3425
 30
0.0
 11
74.6834
 21
-105.0901
 31
0.0
  0
LINE
  8
1
  5
509
  6
CONTINUOUS
 62
2
 10
70.9549
 20
-105.0901
 30
0.0
 11
70.9549
 21
-105.3425
 31
0.0
  0
LINE
  8
1
  5
50B
  6
CONTINUOUS
 62
2
 10
70.9549
 20
-105.3425
 30
0.0
 11
71.9287
 21
-105.3425
 31
0.0
  0
LINE
  8
1
  5
50D
  6
CONTINUOUS
 62
2
 10
71.9287
 20
-105.3425
 30
0.0
 11
71.9287
 21
-105.0901
 31
0.0
  0
LINE
  8
1
  5
50F
  6
CONTINUOUS
 62
2
 10
74.6834
 20
-105.0901
 30
0.0
 11
75.4911
 21
-105.0901
 31
0.0
  0
LINE
  8
1
  5
511
  6
CONTINUOUS
 62
2
 10
71.9287
 20
-105.0901
 30
0.0
 11
73.7095
 21
-105.0901
 31
0.0
  0
LINE
  8
1
  5
513
  6
CONTINUOUS
 62
2
 10
66.9065
 20
-105.0901
 30
0.0
 11
68.0719
 21
-105.0901
 31
0.0
  0
LINE
  8
1
  5
515
  6
CONTINUOUS
 62
2
 10
69.0456
 20
-105.0901
 30
0.0
 11
70.9549
 21
-105.0901
 31
0.0
  0
POLYLINE
  8
1
  5
517
  6
CONTINUOUS
 62
3
 10
0.0
 20
0.0
 30
0.0
 66
1
 70
1
  0
VERTEX
  8
1
  5
518
  6
CONTINUOUS
 62
3
 10
4.3879
 20
-78.9543
 30
0.0
  0
VERTEX
  8
1
  5
519
  6
CONTINUOUS
 62
3
 10
23.8146
 20
-78.9543
 30
0.0
  0
VERTEX
  8
1
  5
51A
  6
CONTINUOUS
 62
3
 10
23.8146
 20
-95.3415
 30
0.0
  0
VERTEX
  8
1
  5
51B
  6
CONTINUOUS
 62
3
 10
4.3879
 20
-95.3415
 30
0.0
  0
SEQEND
  8
1
  5
51C
  0
TEXT
  8
6
  5
51E
  6
CONTINUOUS
 62
3
 10
10.685
 20
-96.2057
 30
0.0
  1
WING CENTER RIBS
 40
0.5006
 41
1.0
  7
STANDARD
 72
4
 11
14.4058
 21
-95.9554
 31
0.0
  0
POLYLINE
  8
1
  5
520
  6
CONTINUOUS
 62
3
 10
0.0
 20
0.0
 30
0.0
 66
1
 70
1
  0
VERTEX
  8
1
  5
521
  6
CONTINUOUS
 62
3
 10
65.2643
 20
-95.7866
 30
0.0
  0
VERTEX
  8
1
  5
522
  6
CONTINUOUS
 62
3
 10
77.5972
 20
-95.7866
 30
0.0
  0
VERTEX
  8
1
  5
523
  6
CONTINUOUS
 62
3
 10
77.5972
 20
-109.1311
 30
0.0
  0
VERTEX
  8
1
  5
524
  6
CONTINUOUS
 62
3
 10
65.2643
 20
-109.1311
 30
0.0
  0
SEQEND
  8
1
  5
525
  0
TEXT
  8
6
  5
527
  6
CONTINUOUS
 62
3
 10
66.968
 20
-110.2246
 30
0.0
  1
WING TIP COMPONENTS
 40
0.5006
 41
1.0
  7
STANDARD
 72
4
 11
71.4298
 21
-109.9743
 31
0.0
  0
TEXT
  8
6
  5
529
  6
CONTINUOUS
 62
3
 10
11.4511
 20
-97.1506
 30
0.0
  1
 (1/8" BALSA)
 40
0.5006
 41
1.0
  7
STANDARD
 72
4
 11
13.9933
 21
-96.9003
 31
0.0
  0
TEXT
  8
6
  5
52B
  6
CONTINUOUS
 62
3
 10
67.8972
 20
-111.1466
 30
0.0
  1
 (1/8" LITE PLY)
 40
0.5006
 41
1.0
  7
STANDARD
 72
4
 11
71.0859
 21
-110.8963
 31
0.0
  0
LINE
  8
4
  5
52D
  6
CONTINUOUS
 62
2
 10
-13.8065
 20
-104.047
 30
0.0
 11
-13.8065
 21
-103.3608
 31
0.0
  0
LINE
  8
4
  5
52F
  6
CONTINUOUS
 62
2
 10
-9.2045
 20
-104.7055
 30
0.0
 11
-9.2045
 21
-103.8862
 31
0.0
  0
LINE
  8
4
  5
531
  6
CONTINUOUS
 62
2
 10
-9.0794
 20
-104.7032
 30
0.0
 11
-9.0794
 21
-103.8818
 31
0.0
  0
LINE
  8
4
  5
533
  6
CONTINUOUS
 62
2
 10
-5.2042
 20
-104.6271
 30
0.0
 11
-5.2042
 21
-103.7464
 31
0.0
  0
LINE
  8
4
  5
535
  6
CONTINUOUS
 62
2
 10
-5.0792
 20
-104.6246
 30
0.0
 11
-5.0792
 21
-103.742
 31
0.0
  0
LINE
  8
4
  5
537
  6
CONTINUOUS
 62
2
 10
-1.9629
 20
-104.5635
 30
0.0
 11
-1.9629
 21
-103.6299
 31
0.0
  0
LINE
  8
4
  5
539
  6
CONTINUOUS
 62
2
 10
-13.6814
 20
-104.7934
 30
0.0
 11
-13.6814
 21
-104.0426
 31
0.0
  0
LINE
  8
4
  5
53B
  6
CONTINUOUS
 62
2
 10
-1.9629
 20
-103.6299
 30
0.0
 11
-1.838
 21
-103.6299
 31
0.0
  0
LINE
  8
4
  5
53D
  6
CONTINUOUS
 62
2
 10
-13.8065
 20
-107.1616
 30
0.0
 11
-13.8065
 21
-106.4014
 31
0.0
  0
LINE
  8
4
  5
53F
  6
CONTINUOUS
 62
2
 10
-9.2045
 20
-107.9181
 30
0.0
 11
-9.2045
 21
-106.9996
 31
0.0
  0
LINE
  8
4
  5
541
  6
CONTINUOUS
 62
2
 10
-9.0794
 20
-107.9155
 30
0.0
 11
-9.0794
 21
-106.9953
 31
0.0
  0
LINE
  8
4
  5
543
  6
CONTINUOUS
 62
2
 10
-5.2042
 20
-107.8396
 30
0.0
 11
-5.2042
 21
-106.8589
 31
0.0
  0
LINE
  8
4
  5
545
  6
CONTINUOUS
 62
2
 10
-5.0792
 20
-107.8373
 30
0.0
 11
-5.0792
 21
-106.8546
 31
0.0
  0
LINE
  8
4
  5
547
  6
CONTINUOUS
 62
2
 10
-1.9629
 20
-107.7761
 30
0.0
 11
-1.9629
 21
-106.7449
 31
0.0
  0
LINE
  8
4
  5
549
  6
CONTINUOUS
 62
2
 10
-13.6814
 20
-108.0058
 30
0.0
 11
-13.6814
 21
-107.1573
 31
0.0
  0
LINE
  8
4
  5
54B
  6
CONTINUOUS
 62
2
 10
10.1306
 20
-107.1616
 30
0.0
 11
10.1306
 21
-106.4014
 31
0.0
  0
LINE
  8
4
  5
54D
  6
CONTINUOUS
 62
2
 10
5.5285
 20
-107.9181
 30
0.0
 11
5.5285
 21
-106.9996
 31
0.0
  0
LINE
  8
4
  5
54F
  6
CONTINUOUS
 62
2
 10
5.4036
 20
-107.9155
 30
0.0
 11
5.4036
 21
-106.9953
 31
0.0
  0
LINE
  8
4
  5
551
  6
CONTINUOUS
 62
2
 10
1.5283
 20
-107.8396
 30
0.0
 11
1.5283
 21
-106.8589
 31
0.0
  0
LINE
  8
4
  5
553
  6
CONTINUOUS
 62
2
 10
1.4035
 20
-107.8373
 30
0.0
 11
1.4035
 21
-106.8546
 31
0.0
  0
LINE
  8
4
  5
555
  6
CONTINUOUS
 62
2
 10
-1.7129
 20
-107.7761
 30
0.0
 11
-1.7129
 21
-106.7449
 31
0.0
  0
LINE
  8
4
  5
557
  6
CONTINUOUS
 62
2
 10
10.0055
 20
-108.0058
 30
0.0
 11
10.0055
 21
-107.1573
 31
0.0
  0
LINE
  8
4
  5
559
  6
CONTINUOUS
 62
2
 10
-13.6814
 20
-107.1573
 30
0.0
 11
-13.8065
 21
-107.1616
 31
0.0
  0
LINE
  8
4
  5
55B
  6
CONTINUOUS
 62
2
 10
-9.0794
 20
-106.9953
 30
0.0
 11
-9.2045
 21
-106.9997
 31
0.0
  0
LINE
  8
4
  5
55D
  6
CONTINUOUS
 62
2
 10
-1.838
 20
-106.7404
 30
0.0
 11
-1.9629
 21
-106.7449
 31
0.0
  0
LINE
  8
4
  5
55F
  6
CONTINUOUS
 62
2
 10
-5.0792
 20
-106.8545
 30
0.0
 11
-5.2042
 21
-106.8588
 31
0.0
  0
LINE
  8
4
  5
561
  6
CONTINUOUS
 62
2
 10
-1.838
 20
-106.7404
 30
0.0
 11
-1.7129
 21
-106.7449
 31
0.0
  0
LINE
  8
4
  5
563
  6
CONTINUOUS
 62
2
 10
1.4035
 20
-106.8546
 30
0.0
 11
1.5283
 21
-106.8589
 31
0.0
  0
LINE
  8
4
  5
565
  6
CONTINUOUS
 62
2
 10
5.4036
 20
-106.9953
 30
0.0
 11
5.5285
 21
-106.9996
 31
0.0
  0
LINE
  8
4
  5
567
  6
CONTINUOUS
 62
2
 10
10.0055
 20
-107.1573
 30
0.0
 11
10.1306
 21
-107.1616
 31
0.0
  0
LINE
  8
4
  5
569
  6
CONTINUOUS
 62
2
 10
-1.9629
 20
-107.7761
 30
0.0
 11
-5.0792
 21
-107.8373
 31
0.0
  0
LINE
  8
4
  5
56B
  6
CONTINUOUS
 62
2
 10
-5.2042
 20
-107.8396
 30
0.0
 11
-9.0794
 21
-107.9155
 31
0.0
  0
LINE
  8
4
  5
56D
  6
CONTINUOUS
 62
2
 10
-1.7129
 20
-107.7761
 30
0.0
 11
1.4035
 21
-107.8371
 31
0.0
  0
LINE
  8
4
  5
56F
  6
CONTINUOUS
 62
2
 10
1.5283
 20
-107.8396
 30
0.0
 11
5.4036
 21
-107.9155
 31
0.0
  0
TEXT
  8
4
  5
571
  6
CONTINUOUS
 62
2
 10
-8.2146
 20
-104.1734
 30
0.0
  1
D-1
 40
0.4335
 41
1.0
  7
STANDARD
  0
TEXT
  8
4
  5
573
  6
CONTINUOUS
 62
2
 10
-8.2145
 20
-107.2767
 30
0.0
  1
D-2
 40
0.4335
 41
1.0
  7
STANDARD
  0
LINE
  8
4
  5
575
  6
CONTINUOUS
 62
2
 10
-5.0792
 20
-103.742
 30
0.0
 11
-5.2042
 21
-103.7464
 31
0.0
  0
LINE
  8
4
  5
577
  6
CONTINUOUS
 62
2
 10
-9.0794
 20
-103.8818
 30
0.0
 11
-9.2045
 21
-103.8862
 31
0.0
  0
LINE
  8
4
  5
579
  6
CONTINUOUS
 62
2
 10
-13.8065
 20
-104.047
 30
0.0
 11
-13.6814
 21
-104.0426
 31
0.0
  0
LINE
  8
4
  5
57B
  6
CONTINUOUS
 62
2
 10
-1.9629
 20
-104.5635
 30
0.0
 11
-5.0792
 21
-104.6246
 31
0.0
  0
LINE
  8
4
  5
57D
  6
CONTINUOUS
 62
2
 10
-5.2042
 20
-104.6271
 30
0.0
 11
-9.0794
 21
-104.7032
 31
0.0
  0
LINE
  8
4
  5
57F
  6
CONTINUOUS
 62
2
 10
10.1306
 20
-104.047
 30
0.0
 11
10.1306
 21
-103.3608
 31
0.0
  0
LINE
  8
4
  5
581
  6
CONTINUOUS
 62
2
 10
5.5285
 20
-104.7055
 30
0.0
 11
5.5285
 21
-103.8862
 31
0.0
  0
LINE
  8
4
  5
583
  6
CONTINUOUS
 62
2
 10
5.4036
 20
-104.7032
 30
0.0
 11
5.4036
 21
-103.8818
 31
0.0
  0
LINE
  8
4
  5
585
  6
CONTINUOUS
 62
2
 10
1.5283
 20
-104.6271
 30
0.0
 11
1.5283
 21
-103.7464
 31
0.0
  0
LINE
  8
4
  5
587
  6
CONTINUOUS
 62
2
 10
1.4035
 20
-104.6246
 30
0.0
 11
1.4035
 21
-103.742
 31
0.0
  0
LINE
  8
4
  5
589
  6
CONTINUOUS
 62
2
 10
-1.7129
 20
-104.5635
 30
0.0
 11
-1.7129
 21
-103.6299
 31
0.0
  0
LINE
  8
4
  5
58B
  6
CONTINUOUS
 62
2
 10
10.0055
 20
-104.7934
 30
0.0
 11
10.0055
 21
-104.0426
 31
0.0
  0
LINE
  8
4
  5
58D
  6
CONTINUOUS
 62
2
 10
-1.7129
 20
-103.6299
 30
0.0
 11
-1.838
 21
-103.6299
 31
0.0
  0
TEXT
  8
4
  5
58F
  6
CONTINUOUS
 62
2
 10
3.6241
 20
-104.1734
 30
0.0
  1
D-1
 40
0.4335
 41
1.0
  7
STANDARD
  0
LINE
  8
4
  5
591
  6
CONTINUOUS
 62
2
 10
1.4035
 20
-103.742
 30
0.0
 11
1.5283
 21
-103.7464
 31
0.0
  0
LINE
  8
4
  5
593
  6
CONTINUOUS
 62
2
 10
5.4036
 20
-103.8818
 30
0.0
 11
5.5285
 21
-103.8862
 31
0.0
  0
LINE
  8
4
  5
595
  6
CONTINUOUS
 62
2
 10
10.1306
 20
-104.047
 30
0.0
 11
10.0055
 21
-104.0426
 31
0.0
  0
LINE
  8
4
  5
597
  6
CONTINUOUS
 62
2
 10
-1.7129
 20
-104.5635
 30
0.0
 11
1.4035
 21
-104.6246
 31
0.0
  0
LINE
  8
4
  5
599
  6
CONTINUOUS
 62
2
 10
1.5283
 20
-104.6271
 30
0.0
 11
5.4036
 21
-104.7032
 31
0.0
  0
LINE
  8
6
  5
59B
  6
CONTINUOUS
 62
30
 10
75.816
 20
-88.3871
 30
0.0
 11
75.816
 21
-87.7855
 31
0.0
  0
LINE
  8
6
  5
59D
  6
CONTINUOUS
 62
30
 10
76.191
 20
-87.7855
 30
0.0
 11
76.191
 21
-87.5671
 31
0.0
  0
LINE
  8
6
  5
59F
  6
CONTINUOUS
 62
30
 10
76.191
 20
-87.7855
 30
0.0
 11
75.816
 21
-87.7855
 31
0.0
  0
LINE
  8
6
  5
5A1
  6
CONTINUOUS
 62
30
 10
75.816
 20
-88.9885
 30
0.0
 11
75.816
 21
-89.3636
 31
0.0
  0
LINE
  8
6
  5
5A3
  6
CONTINUOUS
 62
30
 10
76.191
 20
-88.9885
 30
0.0
 11
76.191
 21
-89.3636
 31
0.0
  0
LINE
  8
6
  5
5A5
  6
CONTINUOUS
 62
30
 10
76.191
 20
-88.9885
 30
0.0
 11
75.816
 21
-88.9885
 31
0.0
  0
LINE
  8
6
  5
5A7
  6
CONTINUOUS
 62
30
 10
76.5744
 20
-87.5913
 30
0.0
 11
76.5744
 21
-92.2232
 31
0.0
  0
LINE
  8
6
  5
5A9
  6
CONTINUOUS
 62
30
 10
66.6977
 20
-89.2231
 30
0.0
 11
66.6977
 21
-92.2232
 31
0.0
  0
LINE
  8
6
  5
5AB
  6
CENTER
 62
1
 10
66.6977
 20
-90.7232
 30
0.0
 11
76.5744
 21
-90.7232
 31
0.0
  0
CIRCLE
  8
6
  5
5AD
  6
CONTINUOUS
 62
30
 10
68.345146
 20
-90.723214
 30
0.0
 40
0.837728
  0
CIRCLE
  8
6
  5
5AF
  6
CONTINUOUS
 62
30
 10
73.416119
 20
-90.723214
 30
0.0
 40
0.837728
  0
LINE
  8
6
  5
5B1
  6
CONTINUOUS
 62
30
 10
71.88
 20
-89.1717
 30
0.0
 11
72.2552
 21
-89.1717
 31
0.0
  0
LINE
  8
6
  5
5B3
  6
CONTINUOUS
 62
30
 10
76.191
 20
-89.3636
 30
0.0
 11
75.816
 21
-89.3636
 31
0.0
  0
ARC
  8
6
  5
5B5
  6
CONTINUOUS
 62
30
 10
74.980459
 20
-109.748234
 30
0.0
 40
22.214261
 50
85.88525
 51
86.87615
  0
ARC
  8
6
  5
5B7
  6
CONTINUOUS
 62
30
 10
74.980459
 20
-109.748234
 30
0.0
 40
22.214261
 50
98.0228305556
 51
99.6423
  0
ARC
  8
6
  5
5B9
  6
CONTINUOUS
 62
30
 10
74.980459
 20
-109.748234
 30
0.0
 40
22.214261
 50
88.1670472222
 51
96.7223916667
  0
TEXT
  8
6
  5
5BB
  6
CONTINUOUS
 62
3
 10
74.4186
 20
-89.6523
 30
0.0
  1
H-1
 40
0.3329
 41
1.0
  7
STANDARD
  0
LINE
  8
6
  5
5BD
  6
CONTINUOUS
 62
30
 10
72.2552
 20
-88.3871
 30
0.0
 11
72.2552
 21
-88.0399
 31
0.0
  0
LINE
  8
6
  5
5BF
  6
CONTINUOUS
 62
30
 10
71.88
 20
-88.0399
 30
0.0
 11
71.88
 21
-87.7514
 31
0.0
  0
LINE
  8
6
  5
5C1
  6
CONTINUOUS
 62
30
 10
72.2552
 20
-88.7966
 30
0.0
 11
72.2552
 21
-89.1717
 31
0.0
  0
LINE
  8
6
  5
5C3
  6
CONTINUOUS
 62
30
 10
71.88
 20
-88.7966
 30
0.0
 11
71.88
 21
-89.1717
 31
0.0
  0
LINE
  8
6
  5
5C5
  6
CONTINUOUS
 62
30
 10
71.88
 20
-88.0399
 30
0.0
 11
72.2552
 21
-88.0399
 31
0.0
  0
LINE
  8
6
  5
5C7
  6
CONTINUOUS
 62
30
 10
71.88
 20
-88.7966
 30
0.0
 11
72.2552
 21
-88.7966
 31
0.0
  0
LINE
  8
6
  5
5C9
  6
CONTINUOUS
 62
30
 10
71.2597
 20
-87.8479
 30
0.0
 11
70.5292
 21
-89.2231
 31
0.0
  0
LINE
  8
6
  5
5CB
  6
CONTINUOUS
 62
30
 10
63.5896
 20
-79.2328
 30
0.0
 11
63.5896
 21
-82.8002
 31
0.0
  0
LINE
  8
6
  5
5CD
  6
CONTINUOUS
 62
30
 10
64.3118
 20
-82.9252
 30
0.0
 11
64.3118
 21
-82.8002
 31
0.0
  0
LINE
  8
6
  5
5CF
  6
CONTINUOUS
 62
30
 10
64.3118
 20
-79.2328
 30
0.0
 11
64.3118
 21
-79.1079
 31
0.0
  0
LINE
  8
6
  5
5D1
  6
CONTINUOUS
 62
30
 10
64.8618
 20
-82.9252
 30
0.0
 11
64.8618
 21
-82.8002
 31
0.0
  0
LINE
  8
6
  5
5D3
  6
CONTINUOUS
 62
30
 10
64.8618
 20
-79.2328
 30
0.0
 11
64.8618
 21
-79.1079
 31
0.0
  0
LINE
  8
6
  5
5D5
  6
CONTINUOUS
 62
30
 10
66.1713
 20
-82.9252
 30
0.0
 11
66.1713
 21
-82.8002
 31
0.0
  0
LINE
  8
6
  5
5D7
  6
CONTINUOUS
 62
30
 10
66.1713
 20
-79.2328
 30
0.0
 11
66.1713
 21
-79.1079
 31
0.0
  0
LINE
  8
6
  5
5D9
  6
CONTINUOUS
 62
30
 10
66.6915
 20
-82.9252
 30
0.0
 11
66.6915
 21
-82.8002
 31
0.0
  0
LINE
  8
6
  5
5DB
  6
CONTINUOUS
 62
30
 10
66.6915
 20
-79.2328
 30
0.0
 11
66.6915
 21
-79.1079
 31
0.0
  0
LINE
  8
6
  5
5DD
  6
CONTINUOUS
 62
30
 10
67.1467
 20
-82.8002
 30
0.0
 11
67.1467
 21
-79.2328
 31
0.0
  0
LINE
  8
6
  5
5DF
  6
CONTINUOUS
 62
30
 10
63.5896
 20
-82.8002
 30
0.0
 11
64.3118
 21
-82.8002
 31
0.0
  0
LINE
  8
6
  5
5E1
  6
CONTINUOUS
 62
30
 10
64.8618
 20
-82.8002
 30
0.0
 11
66.1713
 21
-82.8002
 31
0.0
  0
LINE
  8
6
  5
5E3
  6
CONTINUOUS
 62
30
 10
66.6915
 20
-82.8002
 30
0.0
 11
67.1467
 21
-82.8002
 31
0.0
  0
LINE
  8
6
  5
5E5
  6
CONTINUOUS
 62
30
 10
66.6915
 20
-79.2328
 30
0.0
 11
67.1467
 21
-79.2328
 31
0.0
  0
LINE
  8
6
  5
5E7
  6
CONTINUOUS
 62
30
 10
63.5896
 20
-79.2328
 30
0.0
 11
64.3118
 21
-79.2328
 31
0.0
  0
LINE
  8
6
  5
5E9
  6
CONTINUOUS
 62
30
 10
64.8618
 20
-79.2328
 30
0.0
 11
66.1713
 21
-79.2328
 31
0.0
  0
CIRCLE
  8
6
  5
5EB
  6
CONTINUOUS
 62
30
 10
65.414484
 20
-81.01653
 30
0.0
 40
1.120254
  0
LINE
  8
6
  5
5ED
  6
CONTINUOUS
 62
30
 10
64.3118
 20
-82.9252
 30
0.0
 11
64.8618
 21
-82.9252
 31
0.0
  0
LINE
  8
6
  5
5EF
  6
CONTINUOUS
 62
30
 10
66.1713
 20
-82.9252
 30
0.0
 11
66.6915
 21
-82.9252
 31
0.0
  0
LINE
  8
6
  5
5F1
  6
CONTINUOUS
 62
30
 10
64.3118
 20
-79.1079
 30
0.0
 11
64.8618
 21
-79.1079
 31
0.0
  0
LINE
  8
6
  5
5F3
  6
CONTINUOUS
 62
30
 10
66.1713
 20
-79.1079
 30
0.0
 11
66.6915
 21
-79.1079
 31
0.0
  0
TEXT
  8
6
  5
5F5
  6
CONTINUOUS
 62
30
 10
63.9715
 20
-81.3673
 30
0.0
  1
FRONT
 40
0.1627
 50
90.0
 41
1.0
  7
ROMANS
  0
LINE
  8
6
  5
5F7
  6
CONTINUOUS
 62
30
 10
75.816
 20
-83.309
 30
0.0
 11
75.816
 21
-82.8479
 31
0.0
  0
LINE
  8
6
  5
5F9
  6
CONTINUOUS
 62
30
 10
76.191
 20
-82.8479
 30
0.0
 11
76.191
 21
-82.5354
 31
0.0
  0
LINE
  8
6
  5
5FB
  6
CONTINUOUS
 62
30
 10
75.816
 20
-83.7702
 30
0.0
 11
75.816
 21
-84.1452
 31
0.0
  0
LINE
  8
6
  5
5FD
  6
CONTINUOUS
 62
30
 10
76.191
 20
-83.7702
 30
0.0
 11
76.191
 21
-84.1452
 31
0.0
  0
LINE
  8
6
  5
5FF
  6
CONTINUOUS
 62
30
 10
76.5744
 20
-82.5569
 30
0.0
 11
76.5744
 21
-87.256
 31
0.0
  0
LINE
  8
6
  5
601
  6
CONTINUOUS
 62
30
 10
66.6977
 20
-84.2559
 30
0.0
 11
66.6977
 21
-87.256
 31
0.0
  0
LINE
  8
6
  5
603
  6
CENTER
 62
1
 10
66.6977
 20
-85.7559
 30
0.0
 11
76.5744
 21
-85.7559
 31
0.0
  0
CIRCLE
  8
6
  5
605
  6
CONTINUOUS
 62
30
 10
68.345146
 20
-85.755945
 30
0.0
 40
0.837728
  0
CIRCLE
  8
6
  5
607
  6
CONTINUOUS
 62
30
 10
73.416119
 20
-85.755945
 30
0.0
 40
0.837728
  0
LINE
  8
6
  5
609
  6
CONTINUOUS
 62
30
 10
71.88
 20
-83.8919
 30
0.0
 11
72.2552
 21
-83.8919
 31
0.0
  0
LINE
  8
6
  5
60B
  6
CONTINUOUS
 62
30
 10
72.2552
 20
-83.5168
 30
0.0
 11
72.2552
 21
-83.8919
 31
0.0
  0
LINE
  8
6
  5
60D
  6
CONTINUOUS
 62
30
 10
71.88
 20
-83.5168
 30
0.0
 11
71.88
 21
-83.8919
 31
0.0
  0
LINE
  8
6
  5
60F
  6
CONTINUOUS
 62
30
 10
72.2552
 20
-83.309
 30
0.0
 11
72.2552
 21
-83.1013
 31
0.0
  0
LINE
  8
6
  5
611
  6
CONTINUOUS
 62
30
 10
71.88
 20
-83.1013
 30
0.0
 11
71.88
 21
-82.7796
 31
0.0
  0
LINE
  8
6
  5
613
  6
CONTINUOUS
 62
30
 10
71.88
 20
-83.5168
 30
0.0
 11
72.2552
 21
-83.5168
 31
0.0
  0
LINE
  8
6
  5
615
  6
CONTINUOUS
 62
30
 10
71.88
 20
-83.1013
 30
0.0
 11
72.2552
 21
-83.1013
 31
0.0
  0
ARC
  8
6
  5
617
  6
CONTINUOUS
 62
30
 10
75.213685
 20
-103.467217
 30
0.0
 40
20.954549
 50
99.1539694444
 51
100.8766944444
  0
LINE
  8
6
  5
619
  6
CONTINUOUS
 62
30
 10
76.191
 20
-84.1452
 30
0.0
 11
75.816
 21
-84.1452
 31
0.0
  0
LINE
  8
6
  5
61B
  6
CONTINUOUS
 62
30
 10
76.191
 20
-82.8479
 30
0.0
 11
75.816
 21
-82.8479
 31
0.0
  0
LINE
  8
6
  5
61D
  6
CONTINUOUS
 62
30
 10
76.191
 20
-83.7702
 30
0.0
 11
75.816
 21
-83.7702
 31
0.0
  0
ARC
  8
6
  5
61F
  6
CONTINUOUS
 62
30
 10
75.213685
 20
-103.467217
 30
0.0
 40
20.954549
 50
88.6947805556
 51
97.7716916667
  0
ARC
  8
6
  5
621
  6
CONTINUOUS
 62
30
 10
75.213685
 20
-103.467217
 30
0.0
 40
20.954549
 50
86.2767194444
 51
87.3267361111
  0
TEXT
  8
6
  5
623
  6
CONTINUOUS
 62
3
 10
74.2855
 20
-84.7989
 30
0.0
  1
H-2
 40
0.3329
 41
1.0
  7
STANDARD
  0
LINE
  8
6
  5
625
  6
CONTINUOUS
 62
30
 10
71.2597
 20
-82.8891
 30
0.0
 11
70.5337
 21
-84.2559
 31
0.0
  0
LINE
  8
6
  5
627
  6
CONTINUOUS
 62
30
 10
67.6988
 20
-84.3809
 30
0.0
 11
67.6988
 21
-84.2559
 31
0.0
  0
LINE
  8
6
  5
629
  6
CONTINUOUS
 62
30
 10
68.2488
 20
-84.3809
 30
0.0
 11
68.2488
 21
-84.2559
 31
0.0
  0
LINE
  8
6
  5
62B
  6
CONTINUOUS
 62
30
 10
70.0786
 20
-84.3809
 30
0.0
 11
70.0786
 21
-84.2559
 31
0.0
  0
LINE
  8
6
  5
62D
  6
CONTINUOUS
 62
30
 10
69.5585
 20
-84.3809
 30
0.0
 11
69.5585
 21
-84.2559
 31
0.0
  0
LINE
  8
6
  5
62F
  6
CONTINUOUS
 62
30
 10
70.0786
 20
-84.3809
 30
0.0
 11
69.5585
 21
-84.3809
 31
0.0
  0
LINE
  8
6
  5
631
  6
CONTINUOUS
 62
30
 10
68.2488
 20
-84.3809
 30
0.0
 11
67.6988
 21
-84.3809
 31
0.0
  0
LINE
  8
6
  5
633
  6
CONTINUOUS
 62
30
 10
67.6988
 20
-87.131
 30
0.0
 11
67.6988
 21
-87.256
 31
0.0
  0
LINE
  8
6
  5
635
  6
CONTINUOUS
 62
30
 10
76.3198
 20
-87.131
 30
0.0
 11
76.3198
 21
-87.256
 31
0.0
  0
LINE
  8
6
  5
637
  6
CONTINUOUS
 62
30
 10
75.7698
 20
-87.131
 30
0.0
 11
75.7698
 21
-87.256
 31
0.0
  0
LINE
  8
6
  5
639
  6
CONTINUOUS
 62
30
 10
75.7698
 20
-87.131
 30
0.0
 11
76.3198
 21
-87.131
 31
0.0
  0
LINE
  8
6
  5
63B
  6
CONTINUOUS
 62
30
 10
67.6988
 20
-89.2231
 30
0.0
 11
67.6988
 21
-89.3481
 31
0.0
  0
LINE
  8
6
  5
63D
  6
CONTINUOUS
 62
30
 10
68.2488
 20
-89.2231
 30
0.0
 11
68.2488
 21
-89.3481
 31
0.0
  0
LINE
  8
6
  5
63F
  6
CONTINUOUS
 62
30
 10
69.5585
 20
-89.2231
 30
0.0
 11
69.5585
 21
-89.3481
 31
0.0
  0
LINE
  8
6
  5
641
  6
CONTINUOUS
 62
30
 10
70.0786
 20
-89.2231
 30
0.0
 11
70.0786
 21
-89.3481
 31
0.0
  0
LINE
  8
6
  5
643
  6
CONTINUOUS
 62
30
 10
70.0786
 20
-89.3481
 30
0.0
 11
69.5585
 21
-89.3481
 31
0.0
  0
LINE
  8
6
  5
645
  6
CONTINUOUS
 62
30
 10
68.2488
 20
-89.3481
 30
0.0
 11
67.6988
 21
-89.3481
 31
0.0
  0
LINE
  8
6
  5
647
  6
CONTINUOUS
 62
30
 10
72.2771
 20
-92.0982
 30
0.0
 11
72.2771
 21
-92.2232
 31
0.0
  0
LINE
  8
6
  5
649
  6
CONTINUOUS
 62
30
 10
75.7698
 20
-92.0982
 30
0.0
 11
75.7698
 21
-92.2232
 31
0.0
  0
LINE
  8
6
  5
64B
  6
CONTINUOUS
 62
30
 10
76.3198
 20
-92.0982
 30
0.0
 11
76.3198
 21
-92.2232
 31
0.0
  0
LINE
  8
6
  5
64D
  6
CONTINUOUS
 62
30
 10
67.6988
 20
-84.2559
 30
0.0
 11
66.6977
 21
-84.2559
 31
0.0
  0
LINE
  8
6
  5
64F
  6
CONTINUOUS
 62
30
 10
70.5337
 20
-84.2559
 30
0.0
 11
70.0786
 21
-84.2559
 31
0.0
  0
LINE
  8
6
  5
651
  6
CONTINUOUS
 62
30
 10
69.5585
 20
-84.2559
 30
0.0
 11
68.2488
 21
-84.2559
 31
0.0
  0
LINE
  8
6
  5
653
  6
CONTINUOUS
 62
30
 10
67.6988
 20
-87.256
 30
0.0
 11
66.6977
 21
-87.256
 31
0.0
  0
LINE
  8
6
  5
655
  6
CONTINUOUS
 62
30
 10
76.5744
 20
-87.256
 30
0.0
 11
76.3198
 21
-87.256
 31
0.0
  0
LINE
  8
6
  5
657
  6
CONTINUOUS
 62
30
 10
75.7698
 20
-87.256
 30
0.0
 11
72.2771
 21
-87.256
 31
0.0
  0
LINE
  8
6
  5
659
  6
CONTINUOUS
 62
30
 10
75.7698
 20
-92.0982
 30
0.0
 11
76.3198
 21
-92.0982
 31
0.0
  0
LINE
  8
6
  5
65B
  6
CONTINUOUS
 62
30
 10
76.5744
 20
-92.2232
 30
0.0
 11
76.3198
 21
-92.2232
 31
0.0
  0
LINE
  8
6
  5
65D
  6
CONTINUOUS
 62
30
 10
75.7698
 20
-92.2232
 30
0.0
 11
72.2771
 21
-92.2232
 31
0.0
  0
LINE
  8
6
  5
65F
  6
CONTINUOUS
 62
30
 10
67.6988
 20
-92.2232
 30
0.0
 11
66.6977
 21
-92.2232
 31
0.0
  0
LINE
  8
6
  5
661
  6
CONTINUOUS
 62
30
 10
67.6988
 20
-89.2231
 30
0.0
 11
66.6977
 21
-89.2231
 31
0.0
  0
LINE
  8
6
  5
663
  6
CONTINUOUS
 62
30
 10
70.5292
 20
-89.2231
 30
0.0
 11
70.0786
 21
-89.2231
 31
0.0
  0
LINE
  8
6
  5
665
  6
CONTINUOUS
 62
30
 10
69.5585
 20
-89.2231
 30
0.0
 11
68.2488
 21
-89.2231
 31
0.0
  0
LINE
  8
4
  5
667
  6
CENTER
 62
1
 10
67.1467
 20
-81.0165
 30
0.0
 11
63.5896
 21
-81.0165
 31
0.0
  0
LINE
  8
6
  5
669
  6
CENTER
 62
1
 10
76.5744
 20
-88.3871
 30
0.0
 11
70.9733
 21
-88.3871
 31
0.0
  0
LINE
  8
6
  5
66B
  6
CENTER
 62
1
 10
76.5744
 20
-83.309
 30
0.0
 11
71.0366
 21
-83.309
 31
0.0
  0
CIRCLE
  8
6
  5
66D
  6
CONTINUOUS
 62
30
 10
74.788065
 20
-83.309062
 30
0.0
 40
0.343762
  0
CIRCLE
  8
6
  5
66F
  6
CONTINUOUS
 62
30
 10
74.788065
 20
-88.387035
 30
0.0
 40
0.343762
  0
LINE
  8
6
  5
671
  6
CENTER
 62
1
 10
74.788
 20
-89.0828
 30
0.0
 11
74.788
 21
-87.683
 31
0.0
  0
LINE
  8
6
  5
673
  6
CENTER
 62
1
 10
74.788
 20
-83.927
 30
0.0
 11
74.788
 21
-82.7188
 31
0.0
  0
LINE
  8
6
  5
675
  6
CONTINUOUS
 62
30
 10
75.691
 20
-83.309
 30
0.0
 11
75.691
 21
-82.5213
 31
0.0
  0
LINE
  8
6
  5
677
  6
CONTINUOUS
 62
30
 10
72.3801
 20
-83.309
 30
0.0
 11
72.3801
 21
-82.7052
 31
0.0
  0
LINE
  8
6
  5
679
  6
CONTINUOUS
 62
30
 10
75.691
 20
-88.3871
 30
0.0
 11
75.691
 21
-87.5453
 31
0.0
  0
LINE
  8
6
  5
67B
  6
CONTINUOUS
 62
30
 10
72.3801
 20
-88.3871
 30
0.0
 11
72.3801
 21
-87.6867
 31
0.0
  0
LINE
  8
6
  5
67D
  6
CONTINUOUS
 62
30
 10
71.1424
 20
-92.2232
 30
0.0
 11
71.1424
 21
-91.8482
 31
0.0
  0
LINE
  8
6
  5
67F
  6
CONTINUOUS
 62
30
 10
68.1271
 20
-91.8482
 30
0.0
 11
71.1424
 21
-91.8482
 31
0.0
  0
LINE
  8
6
  5
681
  6
CONTINUOUS
 62
30
 10
67.6988
 20
-92.0982
 30
0.0
 11
68.1271
 21
-92.0982
 31
0.0
  0
LINE
  8
6
  5
683
  6
CONTINUOUS
 62
30
 10
71.7272
 20
-92.0982
 30
0.0
 11
72.2771
 21
-92.0982
 31
0.0
  0
LINE
  8
6
  5
685
  6
CONTINUOUS
 62
30
 10
68.2488
 20
-86.8809
 30
0.0
 11
71.1424
 21
-86.8809
 31
0.0
  0
LINE
  8
6
  5
687
  6
CONTINUOUS
 62
30
 10
67.6988
 20
-87.131
 30
0.0
 11
68.2488
 21
-87.131
 31
0.0
  0
LINE
  8
6
  5
689
  6
CONTINUOUS
 62
30
 10
71.755
 20
-91.2696
 30
0.0
 11
71.88
 21
-91.2696
 31
0.0
  0
LINE
  8
6
  5
68B
  6
CONTINUOUS
 62
30
 10
71.755
 20
-91.7626
 30
0.0
 11
71.88
 21
-91.7626
 31
0.0
  0
LINE
  8
6
  5
68D
  6
CONTINUOUS
 62
30
 10
71.755
 20
-91.2696
 30
0.0
 11
71.755
 21
-91.7626
 31
0.0
  0
LINE
  8
6
  5
68F
  6
CONTINUOUS
 62
30
 10
71.88
 20
-91.2696
 30
0.0
 11
71.88
 21
-91.7626
 31
0.0
  0
LINE
  8
6
  5
691
  6
CONTINUOUS
 62
30
 10
71.755
 20
-89.6608
 30
0.0
 11
71.88
 21
-89.6608
 31
0.0
  0
LINE
  8
6
  5
693
  6
CONTINUOUS
 62
30
 10
71.755
 20
-90.1538
 30
0.0
 11
71.88
 21
-90.1538
 31
0.0
  0
LINE
  8
6
  5
695
  6
CONTINUOUS
 62
30
 10
71.755
 20
-89.6608
 30
0.0
 11
71.755
 21
-90.1538
 31
0.0
  0
LINE
  8
6
  5
697
  6
CONTINUOUS
 62
30
 10
71.88
 20
-89.6608
 30
0.0
 11
71.88
 21
-90.1538
 31
0.0
  0
LINE
  8
6
  5
699
  6
CONTINUOUS
 62
30
 10
71.755
 20
-86.3024
 30
0.0
 11
71.88
 21
-86.3024
 31
0.0
  0
LINE
  8
6
  5
69B
  6
CONTINUOUS
 62
30
 10
71.755
 20
-86.7952
 30
0.0
 11
71.88
 21
-86.7952
 31
0.0
  0
LINE
  8
6
  5
69D
  6
CONTINUOUS
 62
30
 10
71.755
 20
-86.3024
 30
0.0
 11
71.755
 21
-86.7952
 31
0.0
  0
LINE
  8
6
  5
69F
  6
CONTINUOUS
 62
30
 10
71.88
 20
-86.3024
 30
0.0
 11
71.88
 21
-86.7952
 31
0.0
  0
LINE
  8
6
  5
6A1
  6
CONTINUOUS
 62
30
 10
71.755
 20
-84.6936
 30
0.0
 11
71.88
 21
-84.6936
 31
0.0
  0
LINE
  8
6
  5
6A3
  6
CONTINUOUS
 62
30
 10
71.755
 20
-85.1866
 30
0.0
 11
71.88
 21
-85.1866
 31
0.0
  0
LINE
  8
6
  5
6A5
  6
CONTINUOUS
 62
30
 10
71.755
 20
-84.6936
 30
0.0
 11
71.755
 21
-85.1866
 31
0.0
  0
LINE
  8
6
  5
6A7
  6
CONTINUOUS
 62
30
 10
71.88
 20
-84.6936
 30
0.0
 11
71.88
 21
-85.1866
 31
0.0
  0
LINE
  8
6
  5
6A9
  6
CONTINUOUS
 62
30
 10
68.2488
 20
-86.8809
 30
0.0
 11
68.2488
 21
-87.131
 31
0.0
  0
LINE
  8
6
  5
6AB
  6
CONTINUOUS
 62
30
 10
55.594
 20
-88.2436
 30
0.0
 11
55.594
 21
-88.1186
 31
0.0
  0
LINE
  8
6
  5
6AD
  6
CONTINUOUS
 62
30
 10
55.594
 20
-88.1186
 30
0.0
 11
55.594
 21
-84.4263
 31
0.0
  0
LINE
  8
6
  5
6AF
  6
CENTER
 62
1
 10
57.201
 20
-86.5284
 30
0.0
 11
57.201
 21
-86.0749
 31
0.0
  0
CIRCLE
  8
6
  5
6B1
  6
CONTINUOUS
 62
7
 10
57.201067
 20
-86.297064
 30
0.0
 40
0.078128
  0
LINE
  8
6
  5
6B3
  6
CONTINUOUS
 62
7
 10
57.576
 20
-87.1718
 30
0.0
 11
57.576
 21
-86.9266
 31
0.0
  0
LINE
  8
6
  5
6B5
  6
CONTINUOUS
 62
7
 10
57.576
 20
-85.6629
 30
0.0
 11
57.576
 21
-85.4315
 31
0.0
  0
CIRCLE
  8
6
  5
6B7
  6
CONTINUOUS
 62
7
 10
57.57058
 20
-85.547038
 30
0.0
 40
0.062502
  0
CIRCLE
  8
6
  5
6B9
  6
CONTINUOUS
 62
7
 10
56.451042
 20
-85.547038
 30
0.0
 40
0.062502
  0
CIRCLE
  8
6
  5
6BB
  6
CONTINUOUS
 62
7
 10
57.57518
 20
-87.047089
 30
0.0
 40
0.062502
  0
CIRCLE
  8
6
  5
6BD
  6
CONTINUOUS
 62
7
 10
56.451042
 20
-87.047089
 30
0.0
 40
0.062502
  0
LINE
  8
6
  5
6BF
  6
CONTINUOUS
 62
7
 10
56.4511
 20
-87.1672
 30
0.0
 11
56.4511
 21
-86.9266
 31
0.0
  0
LINE
  8
6
  5
6C1
  6
CONTINUOUS
 62
7
 10
56.4511
 20
-85.6675
 30
0.0
 11
56.4511
 21
-85.4222
 31
0.0
  0
LINE
  8
6
  5
6C3
  6
CONTINUOUS
 62
7
 10
56.3196
 20
-85.547
 30
0.0
 11
56.5698
 21
-85.547
 31
0.0
  0
LINE
  8
6
  5
6C5
  6
CONTINUOUS
 62
7
 10
57.4547
 20
-85.547
 30
0.0
 11
57.6911
 21
-85.547
 31
0.0
  0
LINE
  8
6
  5
6C7
  6
CONTINUOUS
 62
7
 10
56.3196
 20
-87.0471
 30
0.0
 11
56.5605
 21
-87.0471
 31
0.0
  0
LINE
  8
6
  5
6C9
  6
CONTINUOUS
 62
7
 10
57.4594
 20
-87.0471
 30
0.0
 11
57.7004
 21
-87.0471
 31
0.0
  0
LINE
  8
6
  5
6CB
  6
CONTINUOUS
 62
30
 10
57.8261
 20
-85.9651
 30
0.0
 11
58.3591
 21
-85.9651
 31
0.0
  0
LINE
  8
6
  5
6CD
  6
CONTINUOUS
 62
30
 10
57.8261
 20
-86.6289
 30
0.0
 11
58.3591
 21
-86.6289
 31
0.0
  0
POLYLINE
  8
6
  5
6CF
  6
CONTINUOUS
 62
30
 10
0.0
 20
0.0
 30
0.0
 66
1
 70
0
  0
VERTEX
  8
6
  5
6D0
  6
CONTINUOUS
 62
30
 10
57.8261
 20
-86.6289
 30
0.0
  0
VERTEX
  8
6
  5
6D1
  6
CONTINUOUS
 62
30
 10
57.8261
 20
-86.7666
 30
0.0
  0
VERTEX
  8
6
  5
6D2
  6
CONTINUOUS
 62
30
 10
56.201
 20
-86.7666
 30
0.0
  0
VERTEX
  8
6
  5
6D3
  6
CONTINUOUS
 62
30
 10
56.201
 20
-85.8256
 30
0.0
  0
VERTEX
  8
6
  5
6D4
  6
CONTINUOUS
 62
30
 10
57.8261
 20
-85.8256
 30
0.0
  0
VERTEX
  8
6
  5
6D5
  6
CONTINUOUS
 62
30
 10
57.8261
 20
-85.9651
 30
0.0
  0
SEQEND
  8
6
  5
6D6
  0
LINE
  8
6
  5
6D8
  6
CONTINUOUS
 62
30
 10
58.6092
 20
-84.4263
 30
0.0
 11
58.6092
 21
-85.7151
 31
0.0
  0
LINE
  8
6
  5
6DA
  6
CONTINUOUS
 62
30
 10
58.6092
 20
-86.8789
 30
0.0
 11
58.6092
 21
-88.2436
 31
0.0
  0
ARC
  8
6
  5
6DC
  6
CONTINUOUS
 62
30
 10
58.359107
 20
-85.715144
 30
0.0
 40
0.250009
 50
270.0
 51
360.0
  0
ARC
  8
6
  5
6DE
  6
CONTINUOUS
 62
30
 10
58.359107
 20
-86.878983
 30
0.0
 40
0.250009
 50
0.0
 51
90.0
  0
LINE
  8
6
  5
6E0
  6
CONTINUOUS
 62
30
 10
55.594
 20
-88.2436
 30
0.0
 11
58.6092
 21
-88.2436
 31
0.0
  0
LINE
  8
6
  5
6E2
  6
CONTINUOUS
 62
30
 10
55.594
 20
-84.4263
 30
0.0
 11
58.6092
 21
-84.4263
 31
0.0
  0
LINE
  8
6
  5
6E4
  6
CONTINUOUS
 62
30
 10
60.4221
 20
-88.7985
 30
0.0
 11
60.4221
 21
-88.6735
 31
0.0
  0
LINE
  8
6
  5
6E6
  6
CONTINUOUS
 62
30
 10
59.8721
 20
-88.7985
 30
0.0
 11
59.8721
 21
-88.6735
 31
0.0
  0
LINE
  8
6
  5
6E8
  6
CONTINUOUS
 62
30
 10
55.0928
 20
-88.7985
 30
0.0
 11
55.0928
 21
-92.3658
 31
0.0
  0
LINE
  8
6
  5
6EA
  6
CONTINUOUS
 62
30
 10
56.2722
 20
-92.4908
 30
0.0
 11
56.2722
 21
-92.3658
 31
0.0
  0
LINE
  8
6
  5
6EC
  6
CONTINUOUS
 62
30
 10
56.2722
 20
-88.7985
 30
0.0
 11
56.2722
 21
-88.6735
 31
0.0
  0
LINE
  8
6
  5
6EE
  6
CONTINUOUS
 62
30
 10
60.3005
 20
-92.4908
 30
0.0
 11
60.3005
 21
-92.3658
 31
0.0
  0
LINE
  8
6
  5
6F0
  6
CONTINUOUS
 62
30
 10
59.7505
 20
-92.4908
 30
0.0
 11
59.7505
 21
-92.3658
 31
0.0
  0
LINE
  8
6
  5
6F2
  6
CONTINUOUS
 62
30
 10
63.9147
 20
-88.6735
 30
0.0
 11
64.4649
 21
-88.6735
 31
0.0
  0
LINE
  8
6
  5
6F4
  6
CONTINUOUS
 62
30
 10
59.7505
 20
-92.4908
 30
0.0
 11
60.3005
 21
-92.4908
 31
0.0
  0
LINE
  8
6
  5
6F6
  6
CONTINUOUS
 62
30
 10
63.9147
 20
-92.4908
 30
0.0
 11
64.4649
 21
-92.4908
 31
0.0
  0
LINE
  8
6
  5
6F8
  6
CONTINUOUS
 62
30
 10
64.4649
 20
-92.4908
 30
0.0
 11
64.4649
 21
-92.3658
 31
0.0
  0
LINE
  8
6
  5
6FA
  6
CONTINUOUS
 62
30
 10
64.4649
 20
-88.7985
 30
0.0
 11
64.4649
 21
-88.6735
 31
0.0
  0
LINE
  8
6
  5
6FC
  6
CONTINUOUS
 62
30
 10
63.9147
 20
-92.4908
 30
0.0
 11
63.9147
 21
-92.3658
 31
0.0
  0
LINE
  8
6
  5
6FE
  6
CONTINUOUS
 62
30
 10
63.9147
 20
-88.7985
 30
0.0
 11
63.9147
 21
-88.6735
 31
0.0
  0
LINE
  8
6
  5
700
  6
CONTINUOUS
 62
30
 10
55.0928
 20
-92.3658
 30
0.0
 11
55.7222
 21
-92.3658
 31
0.0
  0
LINE
  8
6
  5
702
  6
CONTINUOUS
 62
30
 10
56.2722
 20
-92.3658
 30
0.0
 11
59.7505
 21
-92.3658
 31
0.0
  0
LINE
  8
6
  5
704
  6
CONTINUOUS
 62
30
 10
55.0928
 20
-88.7985
 30
0.0
 11
55.7222
 21
-88.7985
 31
0.0
  0
TEXT
  8
6
  5
706
  6
CONTINUOUS
 62
30
 10
55.3927
 20
-90.9788
 30
0.0
  1
FRONT
 40
0.1627
 50
90.0
 41
1.0
  7
ROMANS
  0
LINE
  8
6
  5
708
  6
CENTER
 62
1
 10
55.087
 20
-90.5442
 30
0.0
 11
64.7196
 21
-90.5442
 31
0.0
  0
LINE
  8
4
  5
70A
  6
CONTINUOUS
 62
30
 10
64.7196
 20
-92.3658
 30
0.0
 11
64.7196
 21
-88.7985
 31
0.0
  0
LINE
  8
6
  5
70C
  6
CONTINUOUS
 62
30
 10
64.4649
 20
-88.7985
 30
0.0
 11
64.7196
 21
-88.7985
 31
0.0
  0
LINE
  8
6
  5
70E
  6
CONTINUOUS
 62
30
 10
60.3005
 20
-92.3658
 30
0.0
 11
63.9147
 21
-92.3658
 31
0.0
  0
LINE
  8
6
  5
710
  6
CONTINUOUS
 62
30
 10
64.4649
 20
-92.3658
 30
0.0
 11
64.7196
 21
-92.3658
 31
0.0
  0
LINE
  8
2
  5
712
  6
CONTINUOUS
 62
1
 10
59.5998
 20
-90.5442
 30
0.0
 11
56.493
 21
-90.5442
 31
0.0
  0
LINE
  8
6
  5
714
  6
CENTER
 62
1
 10
57.8794
 20
-90.7757
 30
0.0
 11
57.8794
 21
-90.3221
 31
0.0
  0
CIRCLE
  8
6
  5
716
  6
CONTINUOUS
 62
7
 10
57.87939
 20
-90.544308
 30
0.0
 40
0.078128
  0
LINE
  8
6
  5
718
  6
CONTINUOUS
 62
7
 10
58.2545
 20
-91.419
 30
0.0
 11
58.2545
 21
-91.1738
 31
0.0
  0
LINE
  8
6
  5
71A
  6
CONTINUOUS
 62
7
 10
58.2545
 20
-89.9102
 30
0.0
 11
58.2545
 21
-89.6787
 31
0.0
  0
CIRCLE
  8
6
  5
71C
  6
CONTINUOUS
 62
7
 10
58.248903
 20
-89.794282
 30
0.0
 40
0.062502
  0
CIRCLE
  8
6
  5
71E
  6
CONTINUOUS
 62
7
 10
57.129365
 20
-89.794282
 30
0.0
 40
0.062502
  0
CIRCLE
  8
6
  5
720
  6
CONTINUOUS
 62
7
 10
58.253503
 20
-91.294333
 30
0.0
 40
0.062502
  0
CIRCLE
  8
6
  5
722
  6
CONTINUOUS
 62
7
 10
57.129365
 20
-91.294333
 30
0.0
 40
0.062502
  0
LINE
  8
6
  5
724
  6
CONTINUOUS
 62
7
 10
57.1295
 20
-91.4145
 30
0.0
 11
57.1295
 21
-91.1738
 31
0.0
  0
LINE
  8
6
  5
726
  6
CONTINUOUS
 62
7
 10
57.1295
 20
-89.9148
 30
0.0
 11
57.1295
 21
-89.6694
 31
0.0
  0
LINE
  8
6
  5
728
  6
CONTINUOUS
 62
7
 10
56.9978
 20
-89.7943
 30
0.0
 11
57.2482
 21
-89.7943
 31
0.0
  0
LINE
  8
6
  5
72A
  6
CONTINUOUS
 62
7
 10
58.1331
 20
-89.7943
 30
0.0
 11
58.3693
 21
-89.7943
 31
0.0
  0
LINE
  8
6
  5
72C
  6
CONTINUOUS
 62
7
 10
56.9978
 20
-91.2944
 30
0.0
 11
57.2387
 21
-91.2944
 31
0.0
  0
LINE
  8
6
  5
72E
  6
CONTINUOUS
 62
7
 10
58.1376
 20
-91.2944
 30
0.0
 11
58.3787
 21
-91.2944
 31
0.0
  0
LINE
  8
6
  5
730
  6
CONTINUOUS
 62
30
 10
59.5374
 20
-89.2984
 30
0.0
 11
63.9694
 21
-89.2984
 31
0.0
  0
LINE
  8
6
  5
732
  6
CONTINUOUS
 62
30
 10
59.5374
 20
-91.8658
 30
0.0
 11
63.9694
 21
-91.8658
 31
0.0
  0
LINE
  8
4
  5
734
  6
CONTINUOUS
 62
30
 10
64.2195
 20
-91.6157
 30
0.0
 11
64.2195
 21
-89.5485
 31
0.0
  0
ARC
  8
6
  5
736
  6
CONTINUOUS
 62
30
 10
63.969498
 20
-89.548474
 30
0.0
 40
0.250009
 50
0.0
 51
90.0
  0
ARC
  8
6
  5
738
  6
CONTINUOUS
 62
30
 10
63.969498
 20
-91.615744
 30
0.0
 40
0.250009
 50
270.0
 51
0.0
  0
LINE
  8
6
  5
73A
  6
CONTINUOUS
 62
30
 10
58.5043
 20
-90.2123
 30
0.0
 11
59.0375
 21
-90.2123
 31
0.0
  0
LINE
  8
6
  5
73C
  6
CONTINUOUS
 62
30
 10
58.5043
 20
-90.8761
 30
0.0
 11
59.0375
 21
-90.8761
 31
0.0
  0
POLYLINE
  8
6
  5
73E
  6
CONTINUOUS
 62
30
 10
0.0
 20
0.0
 30
0.0
 66
1
 70
0
  0
VERTEX
  8
6
  5
73F
  6
CONTINUOUS
 62
30
 10
58.5043
 20
-90.8761
 30
0.0
  0
VERTEX
  8
6
  5
740
  6
CONTINUOUS
 62
30
 10
58.5043
 20
-91.0139
 30
0.0
  0
VERTEX
  8
6
  5
741
  6
CONTINUOUS
 62
30
 10
56.8794
 20
-91.0139
 30
0.0
  0
VERTEX
  8
6
  5
742
  6
CONTINUOUS
 62
30
 10
56.8794
 20
-90.0729
 30
0.0
  0
VERTEX
  8
6
  5
743
  6
CONTINUOUS
 62
30
 10
58.5043
 20
-90.0729
 30
0.0
  0
VERTEX
  8
6
  5
744
  6
CONTINUOUS
 62
30
 10
58.5043
 20
-90.2123
 30
0.0
  0
SEQEND
  8
6
  5
745
  0
LINE
  8
6
  5
747
  6
CONTINUOUS
 62
30
 10
59.2874
 20
-89.5456
 30
0.0
 11
59.2874
 21
-89.9623
 31
0.0
  0
LINE
  8
6
  5
749
  6
CONTINUOUS
 62
30
 10
59.2874
 20
-91.1262
 30
0.0
 11
59.2874
 21
-91.6186
 31
0.0
  0
ARC
  8
6
  5
74B
  6
CONTINUOUS
 62
30
 10
59.03743
 20
-89.962388
 30
0.0
 40
0.250009
 50
270.0
 51
360.0
  0
ARC
  8
6
  5
74D
  6
CONTINUOUS
 62
30
 10
59.03743
 20
-91.126228
 30
0.0
 40
0.250009
 50
0.0
 51
90.0
  0
ARC
  8
6
  5
74F
  6
CONTINUOUS
 62
30
 10
59.537447
 20
-89.548474
 30
0.0
 40
0.250009
 50
90.0
 51
180.0
  0
ARC
  8
6
  5
751
  6
CONTINUOUS
 62
30
 10
59.537447
 20
-91.615744
 30
0.0
 40
0.250009
 50
180.0
 51
270.0
  0
LINE
  8
6
  5
753
  6
CONTINUOUS
 62
30
 10
55.7222
 20
-92.4908
 30
0.0
 11
56.2722
 21
-92.4908
 31
0.0
  0
LINE
  8
6
  5
755
  6
CONTINUOUS
 62
30
 10
55.7222
 20
-88.6735
 30
0.0
 11
56.2722
 21
-88.6735
 31
0.0
  0
LINE
  8
6
  5
757
  6
CONTINUOUS
 62
30
 10
67.6988
 20
-92.0982
 30
0.0
 11
67.6988
 21
-92.2232
 31
0.0
  0
LINE
  8
6
  5
759
  6
CONTINUOUS
 62
30
 10
68.1271
 20
-92.0982
 30
0.0
 11
68.1271
 21
-91.8482
 31
0.0
  0
LINE
  8
6
  5
75B
  6
CONTINUOUS
 62
30
 10
59.8721
 20
-88.6735
 30
0.0
 11
60.4221
 21
-88.6735
 31
0.0
  0
LINE
  8
6
  5
75D
  6
CONTINUOUS
 62
30
 10
56.2722
 20
-88.7985
 30
0.0
 11
59.8721
 21
-88.7985
 31
0.0
  0
LINE
  8
6
  5
75F
  6
CONTINUOUS
 62
30
 10
60.4221
 20
-88.7985
 30
0.0
 11
63.9147
 21
-88.7985
 31
0.0
  0
LINE
  8
6
  5
761
  6
CONTINUOUS
 62
30
 10
71.7272
 20
-92.2232
 30
0.0
 11
71.7272
 21
-92.0982
 31
0.0
  0
LINE
  8
6
  5
763
  6
CONTINUOUS
 62
30
 10
71.7272
 20
-92.2232
 30
0.0
 11
71.1424
 21
-92.2232
 31
0.0
  0
LINE
  8
6
  5
765
  6
CONTINUOUS
 62
2
 10
9.5242
 20
-104.0257
 30
0.0
 11
9.649
 21
-104.0302
 31
0.0
  0
LINE
  8
6
  5
767
  6
CONTINUOUS
 62
2
 10
9.5242
 20
-107.1403
 30
0.0
 11
9.649
 21
-107.1448
 31
0.0
  0
LINE
  8
6
  5
769
  6
CONTINUOUS
 62
30
 10
72.2771
 20
-87.131
 30
0.0
 11
72.2771
 21
-87.256
 31
0.0
  0
LINE
  8
6
  5
76B
  6
CONTINUOUS
 62
30
 10
72.4153
 20
-87.256
 30
0.0
 11
72.2771
 21
-87.256
 31
0.0
  0
LINE
  8
6
  5
76D
  6
CONTINUOUS
 62
30
 10
71.1424
 20
-87.256
 30
0.0
 11
71.1424
 21
-86.8809
 31
0.0
  0
LINE
  8
6
  5
76F
  6
CONTINUOUS
 62
30
 10
70.7756
 20
-86.8809
 30
0.0
 11
71.1424
 21
-86.8809
 31
0.0
  0
LINE
  8
6
  5
771
  6
CONTINUOUS
 62
30
 10
71.7272
 20
-87.131
 30
0.0
 11
72.2771
 21
-87.131
 31
0.0
  0
LINE
  8
6
  5
773
  6
CONTINUOUS
 62
30
 10
71.7272
 20
-87.256
 30
0.0
 11
71.7272
 21
-87.131
 31
0.0
  0
LINE
  8
6
  5
775
  6
CONTINUOUS
 62
30
 10
71.7272
 20
-87.256
 30
0.0
 11
71.1424
 21
-87.256
 31
0.0
  0
LINE
  8
6
  5
777
  6
HIDDEN
 62
30
 10
-1.838
 20
-103.6299
 30
0.0
 11
-1.838
 21
-102.0217
 31
0.0
  0
LINE
  8
6
  5
779
  6
CONTINUOUS
 62
2
 10
5.8317
 20
-103.8968
 30
0.0
 11
5.9568
 21
-103.9012
 31
0.0
  0
LINE
  8
6
  5
77B
  6
CONTINUOUS
 62
2
 10
5.8317
 20
-107.0104
 30
0.0
 11
5.9568
 21
-107.0147
 31
0.0
  0
LINE
  8
4
  5
77D
  6
CONTINUOUS
 62
2
 10
5.5285
 20
-104.7055
 30
0.0
 11
10.0055
 21
-104.7934
 31
0.0
  0
LINE
  8
4
  5
77F
  6
CONTINUOUS
 62
2
 10
5.5285
 20
-107.9181
 30
0.0
 11
10.0055
 21
-108.0058
 31
0.0
  0
LINE
  8
4
  5
781
  6
CONTINUOUS
 62
2
 10
-9.2045
 20
-104.7055
 30
0.0
 11
-13.6814
 21
-104.7934
 31
0.0
  0
LINE
  8
4
  5
783
  6
CONTINUOUS
 62
2
 10
-9.2045
 20
-107.9181
 30
0.0
 11
-13.6814
 21
-108.0058
 31
0.0
  0
LINE
  8
10
  5
785
  6
CONTINUOUS
 62
2
 10
9.649
 20
-107.1448
 30
0.0
 11
9.649
 21
-106.3772
 31
0.0
  0
LINE
  8
10
  5
787
  6
CONTINUOUS
 62
2
 10
5.9568
 20
-107.0147
 30
0.0
 11
5.9568
 21
-106.1916
 31
0.0
  0
LINE
  8
10
  5
789
  6
CONTINUOUS
 62
2
 10
5.8317
 20
-107.0104
 30
0.0
 11
5.8317
 21
-106.1853
 31
0.0
  0
LINE
  8
10
  5
78B
  6
CONTINUOUS
 62
2
 10
9.649
 20
-104.0302
 30
0.0
 11
9.649
 21
-103.3366
 31
0.0
  0
LINE
  8
10
  5
78D
  6
CONTINUOUS
 62
2
 10
9.5242
 20
-104.0259
 30
0.0
 11
9.5242
 21
-103.3303
 31
0.0
  0
LINE
  8
10
  5
78F
  6
CONTINUOUS
 62
2
 10
5.9568
 20
-103.9012
 30
0.0
 11
5.9568
 21
-103.1509
 31
0.0
  0
LINE
  8
10
  5
791
  6
CONTINUOUS
 62
2
 10
5.8317
 20
-103.8968
 30
0.0
 11
5.8317
 21
-103.1447
 31
0.0
  0
LINE
  8
4
  5
793
  6
CONTINUOUS
 62
2
 10
9.649
 20
-103.3366
 30
0.0
 11
10.1306
 21
-103.3608
 31
0.0
  0
LINE
  8
4
  5
795
  6
CONTINUOUS
 62
2
 10
-1.8458
 20
-102.7585
 30
0.0
 11
5.8317
 21
-103.1447
 31
0.0
  0
LINE
  8
4
  5
797
  6
CONTINUOUS
 62
2
 10
5.9568
 20
-103.1509
 30
0.0
 11
9.5242
 21
-103.3303
 31
0.0
  0
LINE
  8
10
  5
799
  6
CONTINUOUS
 62
2
 10
9.5242
 20
-107.1403
 30
0.0
 11
9.5242
 21
-106.3772
 31
0.0
  0
LINE
  8
4
  5
79B
  6
CONTINUOUS
 62
2
 10
9.649
 20
-106.3772
 30
0.0
 11
10.1258
 21
-106.4012
 31
0.0
  0
LINE
  8
4
  5
79D
  6
CONTINUOUS
 62
2
 10
-1.8426
 20
-105.7995
 30
0.0
 11
5.8317
 21
-106.1853
 31
0.0
  0
LINE
  8
4
  5
79F
  6
CONTINUOUS
 62
2
 10
5.9568
 20
-106.1916
 30
0.0
 11
9.5244
 21
-106.3711
 31
0.0
  0
LINE
  8
6
  5
7A1
  6
CONTINUOUS
 62
2
 10
-13.2
 20
-104.0257
 30
0.0
 11
-13.3251
 21
-104.0302
 31
0.0
  0
LINE
  8
6
  5
7A3
  6
CONTINUOUS
 62
2
 10
-9.5078
 20
-103.8968
 30
0.0
 11
-9.6326
 21
-103.9012
 31
0.0
  0
LINE
  8
10
  5
7A5
  6
CONTINUOUS
 62
2
 10
-13.3251
 20
-104.0302
 30
0.0
 11
-13.3251
 21
-103.3366
 31
0.0
  0
LINE
  8
10
  5
7A7
  6
CONTINUOUS
 62
2
 10
-13.2
 20
-104.0259
 30
0.0
 11
-13.2
 21
-103.3303
 31
0.0
  0
LINE
  8
10
  5
7A9
  6
CONTINUOUS
 62
2
 10
-9.6326
 20
-103.9012
 30
0.0
 11
-9.6326
 21
-103.1509
 31
0.0
  0
LINE
  8
10
  5
7AB
  6
CONTINUOUS
 62
2
 10
-9.5078
 20
-103.8968
 30
0.0
 11
-9.5078
 21
-103.1447
 31
0.0
  0
LINE
  8
6
  5
7AD
  6
CONTINUOUS
 62
2
 10
-13.2
 20
-107.1403
 30
0.0
 11
-13.3251
 21
-107.1448
 31
0.0
  0
LINE
  8
6
  5
7AF
  6
CONTINUOUS
 62
2
 10
-9.5078
 20
-107.0104
 30
0.0
 11
-9.6326
 21
-107.0147
 31
0.0
  0
LINE
  8
10
  5
7B1
  6
CONTINUOUS
 62
2
 10
-13.3251
 20
-107.1448
 30
0.0
 11
-13.3251
 21
-106.3772
 31
0.0
  0
LINE
  8
10
  5
7B3
  6
CONTINUOUS
 62
2
 10
-9.6326
 20
-107.0147
 30
0.0
 11
-9.6326
 21
-106.1916
 31
0.0
  0
LINE
  8
10
  5
7B5
  6
CONTINUOUS
 62
2
 10
-9.5078
 20
-107.0104
 30
0.0
 11
-9.5078
 21
-106.1853
 31
0.0
  0
LINE
  8
10
  5
7B7
  6
CONTINUOUS
 62
2
 10
-13.2
 20
-107.1403
 30
0.0
 11
-13.2
 21
-106.3772
 31
0.0
  0
LINE
  8
4
  5
7B9
  6
CONTINUOUS
 62
2
 10
-13.3251
 20
-103.3366
 30
0.0
 11
-13.8065
 21
-103.3608
 31
0.0
  0
LINE
  8
4
  5
7BB
  6
CONTINUOUS
 62
2
 10
-1.8301
 20
-102.7585
 30
0.0
 11
-9.5078
 21
-103.1447
 31
0.0
  0
LINE
  8
4
  5
7BD
  6
CONTINUOUS
 62
2
 10
-9.6326
 20
-103.1509
 30
0.0
 11
-13.2
 21
-103.3303
 31
0.0
  0
LINE
  8
4
  5
7BF
  6
CONTINUOUS
 62
2
 10
-1.8332
 20
-105.7995
 30
0.0
 11
-9.5078
 21
-106.1853
 31
0.0
  0
LINE
  8
4
  5
7C1
  6
CONTINUOUS
 62
2
 10
-9.6326
 20
-106.1916
 30
0.0
 11
-13.2004
 21
-106.3711
 31
0.0
  0
LINE
  8
4
  5
7C3
  6
CONTINUOUS
 62
2
 10
-13.3251
 20
-106.3772
 30
0.0
 11
-13.8018
 21
-106.4012
 31
0.0
  0
LINE
  8
6
  5
7C5
  6
CONTINUOUS
 62
30
 10
61.7307
 20
-87.9943
 30
0.0
 11
61.7307
 21
-87.8692
 31
0.0
  0
LINE
  8
6
  5
7C7
  6
CONTINUOUS
 62
30
 10
62.2235
 20
-87.9943
 30
0.0
 11
62.2235
 21
-87.8692
 31
0.0
  0
LINE
  8
6
  5
7C9
  6
CONTINUOUS
 62
30
 10
63.3394
 20
-87.9943
 30
0.0
 11
63.3394
 21
-87.8692
 31
0.0
  0
LINE
  8
6
  5
7CB
  6
CONTINUOUS
 62
30
 10
63.8322
 20
-87.9943
 30
0.0
 11
63.8322
 21
-87.8692
 31
0.0
  0
LINE
  8
6
  5
7CD
  6
CONTINUOUS
 62
30
 10
61.7307
 20
-87.9943
 30
0.0
 11
62.2235
 21
-87.9943
 31
0.0
  0
LINE
  8
6
  5
7CF
  6
CONTINUOUS
 62
30
 10
63.3394
 20
-87.9943
 30
0.0
 11
63.8322
 21
-87.9943
 31
0.0
  0
LINE
  8
6
  5
7D1
  6
CONTINUOUS
 62
30
 10
59.9664
 20
-87.8692
 30
0.0
 11
61.7307
 21
-87.8692
 31
0.0
  0
LINE
  8
6
  5
7D3
  6
CONTINUOUS
 62
30
 10
62.2235
 20
-87.8692
 30
0.0
 11
63.3394
 21
-87.8692
 31
0.0
  0
LINE
  8
6
  5
7D5
  6
CONTINUOUS
 62
30
 10
63.8322
 20
-87.8692
 30
0.0
 11
64.168
 21
-87.8692
 31
0.0
  0
LINE
  8
6
  5
7D7
  6
CONTINUOUS
 62
30
 10
59.9664
 20
-87.8692
 30
0.0
 11
59.9664
 21
-84.302
 31
0.0
  0
LINE
  8
6
  5
7D9
  6
CONTINUOUS
 62
30
 10
61.7307
 20
-84.177
 30
0.0
 11
61.7307
 21
-84.302
 31
0.0
  0
LINE
  8
6
  5
7DB
  6
CONTINUOUS
 62
30
 10
62.2235
 20
-84.177
 30
0.0
 11
62.2235
 21
-84.302
 31
0.0
  0
LINE
  8
6
  5
7DD
  6
CONTINUOUS
 62
30
 10
63.3394
 20
-84.177
 30
0.0
 11
63.3394
 21
-84.302
 31
0.0
  0
LINE
  8
6
  5
7DF
  6
CONTINUOUS
 62
30
 10
63.8322
 20
-84.177
 30
0.0
 11
63.8322
 21
-84.302
 31
0.0
  0
LINE
  8
6
  5
7E1
  6
CONTINUOUS
 62
30
 10
61.7307
 20
-84.177
 30
0.0
 11
62.2235
 21
-84.177
 31
0.0
  0
LINE
  8
6
  5
7E3
  6
CONTINUOUS
 62
30
 10
63.3394
 20
-84.177
 30
0.0
 11
63.8322
 21
-84.177
 31
0.0
  0
LINE
  8
6
  5
7E5
  6
CONTINUOUS
 62
30
 10
59.9664
 20
-84.302
 30
0.0
 11
61.7307
 21
-84.302
 31
0.0
  0
LINE
  8
6
  5
7E7
  6
CONTINUOUS
 62
30
 10
62.2235
 20
-84.302
 30
0.0
 11
63.3394
 21
-84.302
 31
0.0
  0
LINE
  8
6
  5
7E9
  6
CONTINUOUS
 62
30
 10
63.8322
 20
-84.302
 30
0.0
 11
64.168
 21
-84.302
 31
0.0
  0
LINE
  8
6
  5
7EB
  6
CONTINUOUS
 62
30
 10
62.1346
 20
-87.3691
 30
0.0
 11
64.168
 21
-87.3691
 31
0.0
  0
LINE
  8
6
  5
7ED
  6
CONTINUOUS
 62
30
 10
62.1346
 20
-84.8019
 30
0.0
 11
64.168
 21
-84.8019
 31
0.0
  0
LINE
  8
6
  5
7EF
  6
CONTINUOUS
 62
30
 10
61.6345
 20
-85.3019
 30
0.0
 11
61.6345
 21
-86.8693
 31
0.0
  0
ARC
  8
6
  5
7F1
  6
CONTINUOUS
 62
30
 10
62.134535
 20
-86.869183
 30
0.0
 40
0.500017
 50
180.0
 51
270.0
  0
ARC
  8
6
  5
7F3
  6
CONTINUOUS
 62
30
 10
62.134535
 20
-85.30193
 30
0.0
 40
0.500017
 50
90.0
 51
180.0
  0
LINE
  8
6
  5
7F5
  6
CONTINUOUS
 62
30
 10
64.168
 20
-87.8692
 30
0.0
 11
64.168
 21
-87.3691
 31
0.0
  0
LINE
  8
6
  5
7F7
  6
CONTINUOUS
 62
30
 10
64.168
 20
-84.8019
 30
0.0
 11
64.168
 21
-84.302
 31
0.0
  0
POLYLINE
  8
1
  5
7F9
  6
CONTINUOUS
 62
3
 10
0.0
 20
0.0
 30
0.0
 66
1
 70
1
  0
VERTEX
  8
1
  5
7FA
  6
CONTINUOUS
 62
3
 10
54.0848
 20
-78.3266
 30
0.0
  0
VERTEX
  8
1
  5
7FB
  6
CONTINUOUS
 62
3
 10
77.7232
 20
-78.3266
 30
0.0
  0
VERTEX
  8
1
  5
7FC
  6
CONTINUOUS
 62
3
 10
77.7232
 20
-93.5504
 30
0.0
  0
VERTEX
  8
1
  5
7FD
  6
CONTINUOUS
 62
3
 10
54.0848
 20
-93.5504
 30
0.0
  0
SEQEND
  8
1
  5
7FE
  0
TEXT
  8
6
  5
800
  6
CONTINUOUS
 62
3
 10
58.4601
 20
-94.3851
 30
0.0
  1
PLYWOOD ENGINE POD COMPONENTS
 40
0.5006
 41
1.0
  7
STANDARD
 72
4
 11
65.468
 21
-94.1348
 31
0.0
  0
POLYLINE
  8
1
  5
802
  6
CONTINUOUS
 62
3
 10
0.0
 20
0.0
 30
0.0
 66
1
 70
1
  0
VERTEX
  8
1
  5
803
  6
CONTINUOUS
 62
3
 10
-14.6817
 20
-101.372
 30
0.0
  0
VERTEX
  8
1
  5
804
  6
CONTINUOUS
 62
3
 10
11.1383
 20
-101.372
 30
0.0
  0
VERTEX
  8
1
  5
805
  6
CONTINUOUS
 62
3
 10
11.1383
 20
-108.7552
 30
0.0
  0
VERTEX
  8
1
  5
806
  6
CONTINUOUS
 62
3
 10
-14.6817
 20
-108.7552
 30
0.0
  0
SEQEND
  8
1
  5
807
  0
TEXT
  8
6
  5
809
  6
CONTINUOUS
 62
3
 10
-7.4558
 20
-109.7307
 30
0.0
  1
PLYWOOD WING CROSSBRACES
 40
0.5006
 41
1.0
  7
STANDARD
 72
4
 11
-1.6618
 21
-109.4804
 31
0.0
  0
TEXT
  8
6
  5
80B
  6
CONTINUOUS
 62
3
 10
-5.5876
 20
-110.5997
 30
0.0
  1
(1/8" AIRCRAFT PLY)
 40
0.5006
 41
1.0
  7
STANDARD
 72
4
 11
-1.6618
 21
-110.3494
 31
0.0
  0
TEXT
  8
6
  5
80D
  6
CONTINUOUS
 62
3
 10
62.6665
 20
-95.2741
 30
0.0
  1
(1/8" LITE PLY)
 40
0.5006
 41
1.0
  7
STANDARD
 72
4
 11
65.6049
 21
-95.0238
 31
0.0
  0
TEXT
  8
6
  5
80F
  6
CONTINUOUS
 62
3
 10
54.4365
 20
-82.1135
 30
0.0
  1
(1/4" HARD PLY)
 40
0.5006
 41
1.0
  7
STANDARD
 72
4
 11
57.4575
 21
-81.8632
 31
0.0
  0
LINE
  8
6
  5
811
  6
CONTINUOUS
 62
30
 10
55.7222
 20
-92.4908
 30
0.0
 11
55.7222
 21
-92.3658
 31
0.0
  0
LINE
  8
6
  5
813
  6
CONTINUOUS
 62
30
 10
55.7222
 20
-88.7985
 30
0.0
 11
55.7222
 21
-88.6735
 31
0.0
  0
POLYLINE
  8
1
  5
816
  6
CONTINUOUS
 62
7
 10
0.0
 20
0.0
 30
0.0
 66
1
 70
0
  0
VERTEX
  8
1
  5
817
  6
CONTINUOUS
 62
7
 10
57.7922
 20
-84.074
 30
0.0
  0
VERTEX
  8
1
  5
818
  6
CONTINUOUS
 62
7
 10
57.8083
 20
-84.5898
 30
0.0
  0
VERTEX
  8
1
  5
819
  6
CONTINUOUS
 62
7
 10
57.5514
 20
-84.1423
 30
0.0
  0
SEQEND
  8
1
  5
81A
  0
LINE
  8
1
  5
81C
  6
CONTINUOUS
 62
7
 10
57.8083
 20
-84.5898
 30
0.0
 11
57.1894
 21
-82.4063
 31
0.0
  0
TEXT
  8
1
  5
81F
  6
CONTINUOUS
 62
3
 10
47.56
 20
-105.9364
 30
0.0
  1
   2. THE WING CENTER SECTION
 40
0.4113
 41
1.0
  7
STANDARD
 72
4
 11
53.0568
 21
-105.7308
 31
0.0
  0
TEXT
  8
1
  5
821
  6
CONTINUOUS
 62
3
 10
48.8552
 20
-106.5942
 30
0.0
  1
  IS BUILT UPSIDE DOWN
 40
0.4113
 41
1.0
  7
STANDARD
 72
4
 11
53.0568
 21
-106.3886
 31
0.0
  0
TEXT
  8
1
  5
823
  6
CONTINUOUS
 62
3
 10
47.5763
 20
-107.2521
 30
0.0
  1
     IN ORDER TO INSTALL THE
 40
0.4113
 41
1.0
  7
STANDARD
 72
4
 11
53.0569
 21
-107.0465
 31
0.0
  0
TEXT
  8
1
  5
825
  6
CONTINUOUS
 62
3
 10
48.0749
 20
-107.9096
 30
0.0
  1
    ENGINE POD ASSEMBLIES.
 40
0.4113
 41
1.0
  7
STANDARD
 72
4
 11
53.0568
 21
-107.704
 31
0.0
  0
TEXT
  8
1
  5
828
  6
CONTINUOUS
 62
3
 10
46.3076
 20
-103.2421
 30
0.0
  1
      1. ALL WOOD SIZES INDICATED
 40
0.4113
 41
1.0
  7
STANDARD
 72
4
 11
52.4812
 21
-103.0365
 31
0.0
  0
TEXT
  8
1
  5
82A
  6
CONTINUOUS
 62
3
 10
46.5148
 20
-103.8997
 30
0.0
  1
       ARE FOR THE 93" WINGSPAN
 40
0.4113
 41
1.0
  7
STANDARD
 72
4
 11
52.4812
 21
-103.6941
 31
0.0
  0
TEXT
  8
1
  5
82C
  6
CONTINUOUS
 62
3
 10
45.2518
 20
-104.5575
 30
0.0
  1
          VERSION OF THIS MODEL ONLY.
 40
0.4113
 41
1.0
  7
STANDARD
 72
4
 11
52.4811
 21
-104.3519
 31
0.0
  0
TEXT
  8
1
  5
82E
  6
CONTINUOUS
 62
3
 10
52.1685
 20
-101.8209
 30
0.0
  1
NOTES:
 40
0.7002
 41
1.0
  7
STANDARD
 72
4
 11
53.9492
 21
-101.4708
 31
0.0
  0
LINE
  8
1
  5
830
  6
CONTINUOUS
 62
3
 10
51.6847
 20
-102.0178
 30
0.0
 11
56.2593
 21
-102.0178
 31
0.0
  0
LINE
  8
1
  5
832
  6
CONTINUOUS
 62
253
 10
78.6873
 20
-77.8058
 30
0.0
 11
-15.3127
 21
-77.8058
 31
0.0
  0
LINE
  8
1
  5
834
  6
CONTINUOUS
 62
253
 10
78.6873
 20
-77.8058
 30
0.0
 11
78.6873
 21
-111.8058
 31
0.0
  0
LINE
  8
1
  5
836
  6
CONTINUOUS
 62
253
 10
78.6873
 20
-111.8058
 30
0.0
 11
-15.3127
 21
-111.8058
 31
0.0
  0
LINE
  8
1
  5
838
  6
CONTINUOUS
 62
253
 10
-15.3127
 20
-77.8058
 30
0.0
 11
-15.3127
 21
-111.8058
 31
0.0
  0
TEXT
  8
0
  5
83A
  6
CONTINUOUS
 62
1
 10
55.8115
 20
-110.7044
 30
0.0
  1
SHEET 4
 40
1.2337
 41
1.0
 51
15.0
  7
ROMANC
 72
4
 11
60.3041
 21
-110.0876
 31
0.0
  0
ENDSEC
  0
EOF
